Oops, an error
Loading. Please wait.

Dani Punk Rock Bass

by Sia
76 views 1 this week
no commentswrite comment
1 2 3 4 5
3 more votes to show rating
add to favorites
launch autoscroll
font size
0
reset
guitar tuner
×
Best way to learn
"Dani Punk Rock"
Autoscroll
slow
fast
+/-
esc
set tempo
stop
BUENO ESTE ES EL BAJO AL COMIENZO POR Q LUEGO VA CON RITMO DE GUITARRA

G--------------
D--------3----3
A----0-----0---
E--1---1-------


G---------------
D-----3----7---5
A--3----3-------
E---------------


G---------------
D-----------8---
A-----8-------8-
E---6----6------


G---------------
D-----3---5---3-
A--3----3-------
E---------------


BUENO ESE ES MI SEGUNDO TEMA SOY BAJISTA
SI ALGUEN NECESITA UNO Q SEA  DE LA BANDERA
Suggest correction
Give kudos to tab author, rate the tab!
1 2 3 4 5
comments
print report bad tab
guest
You may want to rate the tab now too:
select rating
Wanna post a correction for this tab? Suggest correction