Oops, an error
Loading. Please wait.

Discursos Bass Tab

by Sia
57 views 1 this week
no commentswrite comment
1 2 3 4 5
3 more votes to show rating
add to favorites
launch autoscroll
font size
0
reset
guitar tuner
Autoscroll
slow
fast
+/-
esc
set tempo
stop
Help us to improve Ultimate-Guitar.com Take our survey!
×
bueno esta cabncion es la primera espero q este bn
*si
g---------------------------
d---------------------------
a----5---7--9--10--9--7--5--
e--7------------------------

*sol
g---------------------------
d---------------------------
a----1--3--5--6---5--3--1---
e--3------------------------

*la
g---------------------------
d---------------------------
a-----3---5---7---8--7--5--3
e---5-----------------------

*re
g---------------------------
d----3---7---8---7---5--3--4
a--5------------------------
e---------------------------


bueno haci es toda la cancion en bajo
ecepto en el coro que va al ritmo con
la guitarra

sigan mandando canciones
xao
Suggest correction
Give kudos to tab author, rate the tab!
1 2 3 4 5
comments
print report bad tab
guest
You may want to rate the tab now too:
select rating
Wanna post a correction for this tab? Suggest correction