Oops, an error
Loading. Please wait.
We have Chord Pro version of Elastic Heart.
It's the closest thing you can get to the original song and it has interactive parts. Check out the tab »
×
by Sia
4,491 views 18 this week
no commentswrite comment
1 2 3 4 5
x 6
add to favorites
×
Save as Personal and add changes to this tab that will be seen only by you. Learn more ›
×
You can save this tab as Personal to edit and correct it or add notes. All changes will be seen only by you. Learn more »
launch autoscroll
font size
0
reset
how to read this tab
guitar tuner
edit
Autoscroll
slow
fast
+/-
esc
set tempo
stop
Author
Difficulty
Elastic Heart - Sia
Tabbed by: SHurley88
Tuning: Standard

Listen to the track for timing. You basically play along with the lyrics
Couldn't be bothered with chords over the top...yet.
Intro

[Palm mute] x4
e|---------------------------------------------------------------------------|
B|---------------------------------------------------------------------------|
G|--11---9---13---9---11-----------------------------------------------------|
D|---------------------------------------------------------------------------|
A|---------------------------------------------------------------------------|
E|---------------------------------------------------------------------------|

[Verse] x2
e|---------------------------------------------------------------------------|
B|--10--------10--9---------9--9----------9--9------9------------------------|
G|-----9-9-9----------------------11--11--------11---------------------------|
D|---------------------------------------------------------------------------|
A|---------------------------------------------------------------------------|
E|---------------------------------------------------------------------------|

Then this
e|---------------------------10--9-------------------------------------------|
B|----------------------------------10-----9--9----------9--9----------9--10-|
G|--9--9--9--9--9--9--9--9-----------------------11--11--------11--11--------|
D|---------------------------------------------------------------------------|
A|---------------------------------------------------------------------------|
E|---------------------------------------------------------------------------|

e|---------------------------------------------------------------------------|
B|--10--10--10-----------10--9--------9--9--9--9-----------------------------|
G|--------------9--9--9------------------------------------------------------|
D|---------------------------------------------------------------------------|
A|---------------------------------------------------------------------------|
E|---------------------------------------------------------------------------|

[Pre Chorus] x2
"You did not break me....."
e|---------------------------------------------------------------------------|
B|----------------------9----------------------------------------------------|
G|--11--11--9--7--7--9-------------------------------------------------------|
D|---------------------------------------------------------------------------|
A|---------------------------------------------------------------------------|
E|---------------------------------------------------------------------------|

[Chorus]
e|-------------------------------------------------------------------------------|
B|--9--9-------10-------------------10--9-----9--9----------9--9--------9--9--10-|
G|--------7/9--------9--9--9--9--9------------------11--11-------11--11----------|
D|-------------------------------------------------------------------------------|
A|-------------------------------------------------------------------------------|
E|-------------------------------------------------------------------------------|

e|---------------------------------------------------------------------------|
B|--10-----------10--10-----------------10--9--9-----------------------------|
G|------9--9--9----------9--9--9--9--9---------------------------------------|
D|---------------------------------------------------------------------------|
A|---------------------------------------------------------------------------|
E|---------------------------------------------------------------------------|

I worked this out from a piano tutorial by Sam Masghati on youtube. 
Check out his channel for tutorials on piano. 
Add bends and extra notes to fill.
Feel free to criticise and whatever you want!!


************************************

| /  Slide up

************************************

            
            
Suggest correction
Creating personal tab
Creating personal tab
You can edit any tab online and save it as your Personal.

You can edit, replace or remove any tab part or add personal notes – all changes will be seen only by you.

Personal tabs can be accessed anytime from any device, even offline.
Learn more »
comments
print report bad tab
guest
You may want to rate the tab now too:
select rating
Wanna post a correction for this tab? Suggest correction