Oops, an error
Loading. Please wait.

Lentil Bass Tab

by Sia
871 views 6 this week
2 commentsread comments
1 2 3 4 5
please rate
add to favorites
launch autoscroll
font size
0
reset
guitar tuner
Autoscroll
slow
fast
+/-
esc
set tempo
stop
Help us to improve Ultimate-Guitar.com Take our survey!
×
The intro bass run that continues through the verses.  Just as well played on guitar.


G ------------------------------------------------------------|
D ------------------------------------------------------------|
A ---7-5-----------7-----3--7---------------------------------|
E -5-----8-7-5--8-----3--------1-x-1----0-3-1-0-1-0----4----7-|

and repeat.
Suggest correction
Give kudos to tab author, rate the tab!
1 2 3 4 5
comments
print report bad tab
2 comments total.
0 reply
letriece.peaco 10 wrote on May 16 2015, 10:33 pm

this sounds close to me,but im playing on the A & E strings on guitar

G 7-5-3-----3-7---5--------------------
D -----7-5----3-7---1-1----3-1-01-0-3-0
A
E

0 reply
akyramoto 10 wrote on November 27 2015, 12:40 am

G ------------------------------------------------------------|
D ---------------------------2---------------------------------|
A ---7-5-----------7-----3------------------------------------|
E -5-----8-7-5--8-----3---------1-x-1----0-3-1-0-1-0----4----7-|

The third e Note is played easier on the D string (instead of trying to reach from the 3rd fret to the 7th on the A string).

guest
You may want to rate the tab now too:
select rating
Please do not post tabs as comments. Select "correction" instead!