Oops, an error
Loading. Please wait.

Numb Tab

by Sia
1,003 views 1 this week
no commentswrite comment
1 2 3 4 5
please rate
add to favorites
launch autoscroll
font size
0
reset
how to read this tab
guitar tuner
Tab Pro tools
  • play this tab
  • loop segment
  • change instrument
  • show fretboard
  • metronome
×
Best way to learn
"Numb"
Autoscroll
slow
fast
+/-
esc
set tempo
stop
Contributor
Difficulty
novice
-------------------------------------------------------------------------------
                                         Numb - Sia
-------------------------------------------------------------------------------
Tabbed by:Vtrillo627
Email:it_dies_today84@yahoo.com

Tuning:Standard



Verse 1:
           
e|------------------------------------------------|
B|---------3----------3---------3---------2-------|
G|--------4-4--------4-4-------3-3-------3-3------| x4
D|-------5---5------5---5-----3---3-----0---0-----|
A|------5----------5-------1-1-------0-0----------|
E|---3-3--------3-3-------------------------------|


     G     Bb    D5             G     Bb
e|---3------------------|    ---3----------| 
B|---3-----3-----2------|    ---3-----3----| 
G|---4-----3-----3------| X3 ---4-----3----| 
D|---5-----3-----0------|    ---5-----3----|
A|---5-----1-----0------|    ---5-----1----| 
E|---3------------------|    ---3----------|  



Chorus:

     Bb    Eb    Gm    C
e|---6-----------3-----------|
B|---6-----8-----3-----5-----|
G|---7-----8-----3-----5-----| x2
D|---8-----8-----5-----5-----|
A|---8-----6-----5-----3-----|
E|---6-----------3-----------|

  

Verse 2:

e|------------------------------------------------|
B|---------3----------3---------3---------2-------|
G|--------4-4--------4-4-------3-3-------3-3------| x4
D|-------5---5------5---5-----3---3-----0---0-----|
A|------5----------5-------1-1-------0-0----------|
E|---3-3--------3-3-------------------------------|



Chorus:

     Bb    Eb    Gm    C
e|---6-----------3-----------|
B|---6-----8-----3-----5-----|
G|---7-----8-----3-----5-----| x2
D|---8-----8-----5-----5-----|
A|---8-----6-----5-----3-----|
E|---6-----------3-----------|


Bridge: Done on Keyboard


Chorus:

     Bb    Eb    Gm    C
e|---6-----------3-----------|
B|---6-----8-----3-----5-----|
G|---7-----8-----3-----5-----| x4
D|---8-----8-----5-----5-----|
A|---8-----6-----5-----3-----|
E|---6-----------3-----------|





| /  slide up
| \  slide down
| h  hammer-on
| p  pull-off
| ~  vibrato
| +  harmonic
| x  Mute note
===============================================================================
comments
We did not receive enough feedback on this tab! Please rate:
print report bad tab
1 2 3 4 5
I want to post or [tab]
guest
You may want to rate the tab now too:
select rating
Please do not post tabs as comments. Select "correction" instead!