Oops, an error
Loading. Please wait.

Santiago Bass Tab

by Sia
36 views 1 this week
no commentswrite comment
1 2 3 4 5
3 more votes to show rating
add to favorites
launch autoscroll
font size
0
reset
guitar tuner
Autoscroll
slow
fast
+/-
esc
set tempo
stop
Help us to improve Ultimate-Guitar.com Take our survey!
×
A)INTRO

G|---------------------------------------------------------------------------------------------
D|---4----------------------------------------------------------------------------------------- 3 VECES
A|------2---------------22222-222-1------------------------------------------------------------
E|----------2---2-2-2------------------4-2?0-2--4-2---2-2-2---0-2?4-0---2-2-2------------------


B)VERSO

G|-------------------------------------------------------------------------------------------
D|-------------------------------------------------------------------------------------------
A|--2-2-2-2-----------2-2-2-2-----------2-2-2-2----------------------------------------------
E|------------0-0-0-0-----------0-0-0-0------------0-0-0-0----2-2-2-2-2-2--------------------

G|-------------------------------------------------------------------------------------------
D|-------------------------------------------------------------------------------------------
A|--2-2-2-2-----------2-2-2-2-----------2-2-2-2----------------------------------------------
E|------------0-0-0-0-----------0-0-0-0------------0-0-0-0----2-2-2-2-0-0-0-0----------------

C)CORO

G|------------------------------------------------------------------------------------------
D|------------------------------------------------------------------------------------------   4 VECES
A|------------------------------------------------------------------------------------------
E|--4-4-4-4-4-4-2-2-2-2-2-2?0-0-0-0-0-0-2-2-2-2-2-2-----------------------------------------


A)INTRO 4 VECES

B)VERSO

A|--22222-222-1----------------
E|-------------------4-2-------

C) CORO

D) SOLO

G|-------------------------------------|--------------------------------------------------
D|-------------------------------------|-------------------------------------------------- VARIAS
A|------------------2222---------------|---------------2----------------------------------  VECES
E|--4444--00000--------2222------------|--4-----0-----------2-----------------------------

ESO ES TODO...ES MAS FACIL DE LO KE PARECE....SALUDOS A MI AMIGA KAMILA KE LA AMO..AUNKE SEA
DIFICIL DE ACEPTAR Y VIVIR KON ESA KARGA..AH Y A TOOS LOS WEONES DEL SAN ANTONIO( 8.B)
Suggest correction
Give kudos to tab author, rate the tab!
1 2 3 4 5
comments
print report bad tab
guest
You may want to rate the tab now too:
select rating
Wanna post a correction for this tab? Suggest correction