Oops, an error
Loading. Please wait.

Soon Well Be Found Tab

by Sia
91 views 9 this week
no commentswrite comment
1 2 3 4 5
3 more votes to show rating
add to favorites
launch autoscroll
font size
0
reset
how to read this tab
guitar tuner
Autoscroll
slow
fast
+/-
esc
set tempo
stop
Help us to improve Ultimate-Guitar.com Take our survey!
×
Author
Difficulty
Capo
intermediate
1st fret
All tabs and chords relative to the capo 1.


[Intro/Verse]


       Bm        Bm          Em          F#m
e|---------------------------------------------------------------------------|
B|-----3---3--------3---3-------0---0-------2---2-----------3---2------------|
G|-----4---4--------4---4-------0---0-------2---2-----------2---2------------|
D|---4---4---4----4---4---4---2---2---2---4---4---4--or---4---4---4----------|
A|-2------------2------------------------------------------------------------|
E|---------------------------0-----------2--------------2--------------------|

    
    G                A
e|------------3----------------5---------------------------------------------|
B|--------3-----3----------5-------------------------------------------------|
G|------4---4------------6---6---6-------------------------------------------|
D|----5----------------7-----------------------------------------------------|
A|---------------------------------------------------------------------------|
E|--3----------------5-------------------------------------------------------|


 Bm                  Em        F#m
Come along it is the break of day
   Bm                    Em            F#m
Surely now, you'll have some things to say
 Bm                   Em       F#m     G     A
It's not the time for telling tales on me


[Pre-Chorus]

   D                     Gm                   A            F#
e|-----------------------------3--------------------5-------------2-----------|
B|---------7----------7----------3-----play-----------5-----------2-----------|
G|-----7----------7----------3-----3---three------6-----6------3--3-----------|
D|---7---7------7---7------5-----------times----7------------4----4-----------|
A|-5----------5---------------------------------------------------4-----------|
E|-----------------------3--------------------5------------2------2-----------|

 D                                    Gm
So come along, it won't be long 'til we return happy
 D                                     Gm
Shut your eyes, there are no lies in this world we call sleep
  D                             Gm                A      F#
Let's desert this day of hurt, tomorrow we'll be free


[Chorus]

    Bm           A7           D            Em
e|--2---2-2---0--3---3-3---0--2---2-2---0--0---0-0------------------------------|
B|--3---3-3---0--2---2-2---0--3---3-3---0--0---0-0------------------------------|
G|--4---4-4---0--2---2-2---0--2---2-2---0--0---0-0------------------------------|
D|--4---4-4---0--2---2-2---0--0---0-0---0--2---2-2------------------------------|
A|--2---2-2------0---0-0-------------------2---2-2------------------------------|
E|--2---2-2--------------------------------0---0-0------------------------------|

 Bm       A7          D                    Em        Bm
Let's not fight, I'm tired, can't we just sleep tonight?
      A7         D                        Em       Bm
Turn away, it's just there's nothing left here to say
       A7       D                   Em            G    F#
Turn around, I know we're lost but soon we'll be found


[Verse 2]

Well, it's been rough but we'll be just fine
Work it out, yeah, we'll survive
You mustn't let a few bad times dictate


[Pre-Chorus]

So come along, it won't be long 'til we return happy
Shut your eyes, there are no lies in this world we call sleep
Let's desert this day of work, tomorrow we'll be free



G          Bm  A  F#m  E   G   F#
ohhhh oohhhhh ahhhhh ahhhhhh yeahhhh


[Chorus]

Let's not fight, I'm tired, can't we just sleep tonight?
Turn away, it's just there's nothing left here to say
Turn around, I know we're lost but soon we'll be found

Let's not fight, I'm tired, can't we just sleep tonight?
Don't turn away, it's just there's nothing left here to say
Turn around, I know we're lost but soon we'll be found
Suggest correction
Give kudos to tab author, rate the tab!
1 2 3 4 5
comments
print report bad tab
guest
You may want to rate the tab now too:
select rating
Wanna post a correction for this tab? Suggest correction