Oops, an error
Loading. Please wait.

Sunday tab

version 1
version 1

Whole song

Interactive

by Sia
88 views 3 this week
no commentswrite comment
1 2 3 4 5
3 more votes to show rating
add to favorites
×
Save as Personal and add changes to this tab that will be seen only by you. Learn more ›
×
You can save this tab as Personal to edit and correct it or add notes. All changes will be seen only by you. Learn more »
launch autoscroll
font size
0
reset
how to read this tab
guitar tuner
edit
Autoscroll
slow
fast
+/-
esc
set tempo
stop
-------------------------------------------------------------------------------
                             Sunday - Sia 
-------------------------------------------------------------------------------
Tabbed by:majorseventh
E-mail:cwarner3000@gmail.com

This is keyboard arranged for guitar.

Tuning:Standard EADGBe
Intro and Verse 
    Gm            D             Dm           C
e|--3--3---3--3---2--2---2--2---1--1--1--1---0--0---0--0---------------------|
B|--3--3---3--3---3--3---3--3---3--3--3--3---1--1---1--1---------------------|
G|--3--3---3--3---2--2---2--2---2--2--2--2---0--0---0--0---------------------|
D|-------0------0------0------0------0--0--0---------------------------------|
A|-------------------------------------------3----3------3-------------------|
E|---------------------------------------------------------------------------|

Chorus
    F      Cm Ebmaj7 F       Cm Ebmaj7
e|--1----------------1-------3--3--------------------------------------------|
B|--1----------3-----1-------4--3--------------------------------------------|
G|--2-2-0---0--0-----2-2-0---5--3------repeat--------------------------------|
D|--3-----3-1--1-----3-----3-5--5--------------------------------------------|
A|--3-------3--1-----3-------3--6--------------------------------------------|
E|---------------------------------------------------------------------------|



Sunday Chords
Gm
For those who've slept
D
For those who've kept
Dm
Themselves jacked up
C
How Jesus wept
Gm    D
Sunday
Dm    C
Sunday

Gm
For those in need
D
For those who speed
Dm                              C
For those who try to slow their minds with weed
Gm    D
Sunday
Dm    C
Sunday

Gm 
For those who wake
D
With a blind headache
Dm                          C
Who must be still, who will sit and wait for
Gm    D
Sunday,
      Dm    C
to be monday

F             Cm Ebmaj7
Yeah, it will be ok
F      Cm  Ebmaj7
Do nothing today
F        Cm   Ebmaj7
Give yourself a break
F          Cm        Ebmaj7
Let your imagination run away


************************************

| /   slide up
| \   slide down
| h   hammer-on
| p   pull-off
| ~   vibrato
| +   harmonic
| x   Mute note
| b   Bend
| pb  Pre-bend
| br  Bend release
| pbr Pre-bend release
| brb Bend release bend

************************************
Suggest correction
Creating personal tab
Creating personal tab
You can edit any tab online and save it as your Personal.

You can edit, replace or remove any tab part or add personal notes – all changes will be seen only by you.

Personal tabs can be accessed anytime from any device, even offline.
Learn more »
Give kudos to tab author, rate the tab!
1 2 3 4 5
comments
print report bad tab
guest
You may want to rate the tab now too:
select rating
Wanna post a correction for this tab? Suggest correction