Oops, an error
Loading. Please wait.

Sweet Potato Tab

by Sia
3,378 views 3 this week
no commentswrite comment
1 2 3 4 5
excellent!
x 1
add to favorites
launch autoscroll
font size
0
reset
how to read this tab
guitar tuner
Tab Pro tools
  • play this tab
  • loop segment
  • change instrument
  • show fretboard
  • metronome
Autoscroll
slow
fast
+/-
esc
set tempo
stop
Contributor
Difficulty
novice
-------------------------------------------------------------------------------
                             Sweet Potato - Sia
-------------------------------------------------------------------------------
Tabbed by:Vtrillo627
Email:it_dies_today84@yahoo.com

Tuning:Standard


Intro:

Guitar 1

e|-------------11-----9-----------11----9-----------9---7---------9---7--|
B|------------9--9--9------------9--9--9-----------7-7-7---------7-7-7---|
G|---11-11-11-----11-----11-11-11----11------8-8-8----8-----8-8-8---8----| x2
D|-----------------------------------------------------------------------|
A|-----------------------------------------------------------------------|
E|-----------------------------------------------------------------------|

Guitar 2

     C#m                   B
e|-----------------------------------------------|
B|---------------------------7---7---7----7------|
G|------9----9----9----9----8---8---8----8-------| x2
D|----11---11---11---11--------------------------|
A|-----------------------------------------------|
E|---9----9----9----9------7---7---7---7---------|



Verse 1:

     C#m                   B
e|-----------------------------------------------|
B|---------------------------7---7---7----7------|
G|------9----9----9----9----8---8---8----8-------| x2
D|----11---11---11---11--------------------------|
A|-----------------------------------------------|
E|---9----9----9----9------7---7---7---7---------|



Chorus:

   Emaj7  G#m    D     F#
e|---------4-----------2------|
B|---9-----4-----7-----2------|
G|---8-----4-----7-----3------| x2
D|---9-----6-----7-----4------|
A|---7-----6-----5-----4------|
E|---------4-----------2------|



Verse 2:

Guitar 1

e|-------------11-----9-----------11----9-----------9---7---------9---7--|
B|------------9--9--9------------9--9--9-----------7-7-7---------7-7-7---|
G|---11-11-11-----11-----11-11-11----11------8-8-8----8-----8-8-8---8----| x2
D|-----------------------------------------------------------------------|
A|-----------------------------------------------------------------------|
E|-----------------------------------------------------------------------|

Guitar 2
     
     C#m                   B
e|-----------------------------------------------|
B|---------------------------7---7---7----7------|
G|------9----9----9----9----8---8---8----8-------| x2
D|----11---11---11---11--------------------------|
A|-----------------------------------------------|
E|---9----9----9----9------7---7---7---7---------|



Chorus:

   Emaj7  G#m    D     F#
e|---------4-----------2------|
B|---9-----4-----7-----2------|
G|---8-----4-----7-----3------| x2
D|---9-----6-----7-----4------|
A|---7-----6-----5-----4------|
E|---------4-----------2------|


Verse 3:

    C#m                    B                              E
e|-----------------------------------------------|     ---0---|
B|---------------------------7---7---7----7------|     ---0---|
G|------9----9----9----9----8---8---8----8-------| x2  ---1---|
D|----11---11---11---11--------------------------|     ---2---|
A|-----------------------------------------------|     ---2---|
E|---9----9----9----9------7---7---7---7---------|     ---0---| 


Bridge:

     A    G#m   F#     E    C#m   D#m    E     F# 
e|---5-----4-----2-----0-----------------------2-----|
B|---5-----4-----2-----0-----5-----7-----9-----2-----|
G|---6-----4-----3-----1-----6-----8-----9-----3-----|x2
D|---7-----6-----4-----2-----6-----8-----9-----4-----|
A|---5-----6-----4-----2-----4-----6-----7-----4-----|
E|---5-----4-----2-----0-----------------------2-----|

     A    G#m   F#     E    C#m   D#m  
e|---5-----4-----2-----0-----------------|
B|---5-----4-----2-----0-----5-----7-----|
G|---6-----4-----2-----1-----6-----8-----|
D|---7-----6-----4-----2-----6-----8-----|
A|---5-----6-----4-----2-----4-----6-----|
E|---5-----4-----2-----0-----------------|

Guitar 1:

e|------------7-----------2---|
B|-----9-----------5-----2----|
G|----8-----4-----5-----------| x2 w/delay
D|---9-----6-----5-----4------|
A|----------------------------|
E|----------------------------|

Guitar 2:

  Emaj7  G#m    D     F#
e|---------4-----------2------|
B|---9-----4-----7-----2------|
G|---8-----4-----7-----3------| x2
D|---9-----6-----7-----4------|
A|---7-----6-----5-----4------|
E|---------4-----------2------|

Verse 4:

Guitar 1

e|-------------11-----9-----------11----9-----------9---7---------9---7--|
B|------------9--9--9------------9--9--9-----------7-7-7---------7-7-7---|
G|---11-11-11-----11-----11-11-11----11------8-8-8----8-----8-8-8---8----| x2
D|-----------------------------------------------------------------------|
A|-----------------------------------------------------------------------|
E|-----------------------------------------------------------------------|

Guitar 2
     
     C#m                   B
e|-----------------------------------------------|
B|---------------------------7---7---7----7------|
G|------9----9----9----9----8---8---8----8-------| x2
D|----11---11---11---11--------------------------|
A|-----------------------------------------------|
E|---9----9----9----9------7---7---7---7---------|



Outro:

     E
e|---0---|
B|---0---|
G|---1---|
D|---2---|
A|---2---|
E|---0---|


| /  slide up
| \  slide down
| h  hammer-on
| p  pull-off
| ~  vibrato
| +  harmonic
| x  Mute note
===============================================================================
comments
We did not receive enough feedback on this tab! Please rate:
print report bad tab
1 2 3 4 5
I want to post or [tab]
guest
You may want to rate the tab now too:
select rating
Please do not post tabs as comments. Select "correction" instead!