Oops, an error
Loading. Please wait.

Youve Changed Tab

by Sia
7,603 views 33 this week
1 commentread comment
1 2 3 4 5
excellent!
x 4
add to favorites
launch autoscroll
font size
0
reset
how to read this tab
guitar tuner
Tab Pro tools
  • play this tab
  • loop segment
  • change instrument
  • show fretboard
  • metronome
Autoscroll
slow
fast
+/-
esc
set tempo
stop
Contributor
Difficulty
-----------------------------------------------------------------------------
                             You've Changed - Sia
-----------------------------------------------------------------------------
Tabbed by: Michelle B
Email: forgiven_indecision@hotmail.co.uk

Tuning:EADGBE (standard tuning)

Pretty funky song to play, you'll notice the intro riff and the verse 
chords are the same notes, just picked/strummed respectively. 
Ofcourse, the positions in which I play them on the neck can be varied, 
and you may find it comfier to play (particularly the solo,)in a 
different position to the one which I have used, but the notes will be 
the same :) have fun!


No guitar [0.00-0.07]

Intro [0.08-0.15]
e|-------------6------------------------------------------------------------|
B|-----------7---7----------------6-----------------9-----------------------|
G|-8-6-8-6-8-------8------------6-----------------9---9-------------------8-|
D|--------------------8-6-8-6-8------11-9-11-9-11-------11--------------9---|
A|---------------------------------------------------------11-9-11-9-11-----|
E|--------------------------------------------------------------------------|

Verse 1
No guitar [0.016-0.31]

[0.32-0.47]
e|--6-6-6-66---------------------------------------------|
B|--7-7-7-77--6-6-6-66---9--9--9--9-9--------------------|
G|--8-8-8-88--6-6-6-66---9--9--9--9-9---8--8--8--8-8-----|
D|------------8-8-8-88--11-11-11-1111---9--9--9--9-9-----| x2
A|-------------------------------------11-11-11-1111-----|
E|-------------------------------------------------------|

[0.48-0.55]
e|-------------6------------------------------------------------------------|
B|-----------7---7----------------6-----------------9-----------------------|
G|-8-6-8-6-8-------8------------6-----------------9---9-------------------8-|
D|--------------------8-6-8-6-8------11-9-11-9-11-------11--------------9---|
A|---------------------------------------------------------11-9-11-9-11-----|
E|--------------------------------------------------------------------------|

Verse 2
[0.56-1.12]
e|--6-6-6-6---------------------------------------|
B|--7-7-7-7--6-6-6-66---9--9--9--9----------------|
G|--8-8-8-8--6-6-6-66---9--9--9--9---8--8--8--8-8-|
D|-----------8-8-8-88--11-11-11-11---9--9--9--9-9-| x2
A|----------------------------------11-11-11-1111-|
E|------------------------------------------------|

Chorus
[1.12-1.43] 
e|--6-6-6-66-----------------------------------------|
B|--7-7-7-77--6-6-6-66---9--9--9--9-9----------------|
G|--8-8-8-88--6-6-6-66---9--9--9--9-9---8--8--8--8-8-|
D|------------8-8-8-88--11-11-11-1111---9--9--9--9-9-|  x4
A|-------------------------------------11-11-11-1111-|
E|---------------------------------------------------|

Solo
[1.44-2.00] 
e|----------9-6---------------------------7-4-------------------|
B|-777777777----666666666-------555555555-----444444444---------|
G|------------------------8-6-5-------------------------6-4-3---| x2
D|--------------------------------------------------------------|
A|--------------------------------------------------------------|
E|--------------------------------------------------------------|

No guitar [2.01-2.15]

[2.16-3.03]
e|--6-6-6-66------------------------------------------|
B|--7-7-7-77--6-6-6-66---9--9--9--9-9-----------------|
G|--8-8-8-88--6-6-6-66---9--9--9--9-9---8--8--8--8-8--| x6
D|------------8-8-8-88--11-11-11-1111---9--9--9--9-9--| 
A|-------------------------------------11-11-11-1111--|
E|----------------------------------------------------|


************************************

| /   slide up
| \   slide down
| h   hammer-on
| p   pull-off
| ~   vibrato
| +   harmonic
| x   Mute note
| b   Bend
| pb  Pre-bend
| br  Bend release
| pbr Pre-bend release
| brb Bend release bend

************************************
comments
print report bad tab
1 comment total.
0 reply
treylio wrote on November 7 2011, 08:15 pm

If you wanna play the intro part it's

e|-11----9---|
B|----11---9-|

[:

I want to post or [tab]
guest
You may want to rate the tab now too:
select rating
Please do not post tabs as comments. Select "correction" instead!