Oops, an error
Loading. Please wait.

Asahan Mo Tab

19,301 views 6 this week
3 commentsread comments
1 2 3 4 5
x 3
add to favorites
launch autoscroll
font size
0
reset
how to read this tab
guitar tuner
Autoscroll
slow
fast
+/-
esc
set tempo
stop
Help us to improve Ultimate-Guitar.com Take our survey!
×

 Song Title:Asahan Mo

 Artist:Siakol

 Tuning:E B G D A E

 Intro:

 e|--15-15----------15-15----------15-15-----------|
 b|--------15-------------15-------------15--------|
 g|-----------12-12----------12-12----------12-12--|
 d|------------------------------------------------|
 a|------------------------------------------------|
 e|------------------------------------------------|

 Adlib:

 e|--------------------------------------------------------------------|
 b|----------12h13-13b-12-13s12----12---------12h13-13b-12-13s12----12-|
 g|--14b-14b--------------------14----14b-14b--------------------14----|
 d|--------------------------------------------------------------------|
 a|--------------------------------------------------------------------|
 e|--------------------------------------------------------------------|

  ---------12-12-12-----------------------------------------|
  -15b-15b----------15-13s12-13-12h13-----------------------|
  ------------------------------------14-114-12s11-12-11h12-|
  ----------------------------------------------------------|
  ----------------------------------------------------------|
  ----------------------------------------------------------|

  ----------------------------------------|
  -------------12h13-15-13-13h15----12h13-|
  ----11-12h14-------------------14-------|
  -14-------------------------------------|
  ----------------------------------------|
  ----------------------------------------|

  --------------------------------------------------------------------|
  ----------12h13-13b-12-13s12----12---------12h13-13b-12-13s12----12-|
  --14b-14b--------------------14----14b-14b--------------------14----|
  --------------------------------------------------------------------|
  --------------------------------------------------------------------|
  --------------------------------------------------------------------|

  ---------12-12-12----------------------------------------------12-|
  -15b-15b----------15-13s12-13-12----12-13-12h13----12-13-15-13----|
  ---------------------------------14-------------14----------------|
  ------------------------------------------------------------------|
  ------------------------------------------------------------------|
  ------------------------------------------------------------------|

  --------------------------------|
  --------------------------------|
  -14-11h12----------11-11h12-12--|
  ----------14-11-12--------------|
  --------------------------------|
  --------------------------------|

 Outro:

 (im not sure about this part)

 e|--------------------------------------------------------------------|
 b|----------12h13-13b-12-13s12----12---------12h13-13b-12-13s12----12-|
 g|--14b-14b--------------------14----14b-14b--------------------14----|
 d|--------------------------------------------------------------------|
 a|--------------------------------------------------------------------|
 e|--------------------------------------------------------------------|

  -------------15-15--------------|
  -15b-15b-15b-------15-13-15-15b-|
  --------------------------------|
  --------------------------------|
  --------------------------------|
  --------------------------------|

  ----------------------------------------------------------|
  -12h13-13-12h13----------------------12-13-15-13-12-------|
  ----------------14-11h12----11-12-14----------------14-12-|
  -------------------------14-------------------------------|
  ----------------------------------------------------------|
  ----------------------------------------------------------|

  -------------------------------------------------------------------|
  ---------12h13-13b-12-13s12----12---------12h13-13b-12-13s12----12-|
  -14b-14b--------------------14----14b-14b--------------------14----|
  -------------------------------------------------------------------|
  -------------------------------------------------------------------|
  -------------------------------------------------------------------|

  -------------15-15--------------|
  -15b-15b-15b-------15-13-15-15b-|
  --------------------------------|
  --------------------------------|
  --------------------------------|
  --------------------------------|

  ----15----------------------------------------------|
  -15----15-15-13-12h13-------------------------------|
  ----------------------14-11h12----------------------|
  -------------------------------14-12-14-------------|
  ----------------------------------------15-14-12-14-|
  ----------------------------------------------------|

  -------------------------------------------------------------------|
  ---------12h13-13b-12-13s12----12---------12h13-13b-12-13s12----12-|
  -14b-14b--------------------14----14b-14b--------------------14----|
  -------------------------------------------------------------------|
  -------------------------------------------------------------------|
  -------------------------------------------------------------------|

  -------------15-15--------------|
  -15b-15b-15b-------15-13-15-15b-|
  --------------------------------|
  --------------------------------|
  --------------------------------|
  --------------------------------|

  ----15----------------------------------------------|
  -15----15-15-13-12h13-------------------------------|
  ----------------------14-11h12----------------------|
  -------------------------------14-12-14-------------|
  ----------------------------------------15-14-12-14-|
  ----------------------------------------------------|

  -------------------------------------------------------------------|
  ---------12h13-13b-12-13s12----12---------12h13-13b-12-13s12----12-|
  -14b-14b--------------------14----14b-14b--------------------14----|
  -------------------------------------------------------------------|
  -------------------------------------------------------------------|
  -------------------------------------------------------------------|

  -------12-12--------------------------|
  -15-15-------15-13s12-13-12-10h12-13--|
  --------------------------------------|
  --------------------------------------|
  --------------------------------------|
  --------------------------------------|

  ***********************The End***********************
Suggest correction
Give kudos to tab author, rate the tab!
1 2 3 4 5
comments
print report bad tab
3 comments total.
0 reply
jhovzkie02 10 Oct 03, 2012 10:52 PM

try moh kyang iupload sa youtube ung solo moh ng kantang 2...pra mlaman ng nagb2sa ng tab na 2 kung san ang tamang bagsak ng nota!

0 reply
mrguitar143 10 Aug 01, 2013 10:45 PM

medyo hndi ko maintidihan sorry..mas ok gawa ka video brod :))

0 reply
josefsecillano 52 Oct 06, 2013 09:15 AM

Intro:

e|-/15-14---------/15-14---------/15-14-----------|
b|--------15-------------15-------------15--------|
g|-----------12~------------12~------------12~----|
d|------------------------------------------------|
a|------------------------------------------------|
e|------------------------------------------------|

guest
You may want to rate the tab now too:
select rating
Wanna post a correction for this tab? Suggest correction