Oops, an error
Loading. Please wait.

Aso Tab

version 2
version 2

Whole song

5,951 views 12 this week
no commentswrite comment
1 2 3 4 5
3 more votes to show rating
add to favorites
launch autoscroll
font size
0
reset
how to read this tab
guitar tuner
Autoscroll
slow
fast
+/-
esc
set tempo
stop
Help us to improve Ultimate-Guitar.com Take our survey!
×
Author
-------------------------------------------------------------------------------
                           Aso - Siakol
-------------------------------------------------------------------------------
Tabbed by:Totim
Email:totziemoron@yahoo.com

Tuning:standard

.... eto ang version ko sa mga solos...


INTRO: C-F-G 2X

  C              F   G            C
ako'y may alaga asong mataba
                    F         G             C
bunto't ay mahaba makinis ang mukha
    Am        Em     Dm           C
mahal niya ako mahal ko rin sya
                    F             G                C
kaya kaming dalawa ay laging magkasama

e|------------8----------------------------------------8-----------------------|
B|------------8----------------------------------------8-----------------------|
G|--5h7-7/9------9-9^---10\9--7-7-7/9-9------5h7-8/9------9-9^--10\9--7-7------|
D|-----------------------------------------------------------------------------|
A|-----------------------------------------------------------------------------|
E|-----------------------------------------------------------------------------|

e|-----------------------------------------------------------------------------|
B|-7\5-5-----------------------------------------------------------------------|
G|-----------------------------------------------------------------------------|
D|-----------------------------------------------------------------------------|
A|-----------------------------------------------------------------------------|
E|-----------------------------------------------------------------------------|
e|-----------------------------------------------------------------------------|

Am        Em         Dm             C
...kahit hayop ay dapat ring mahalin
    F         C     G         C
lalo't maamo at masunurin
    Am       Em        Dm            C
sila'y alagaan at wag pababayaan
  F         C         G          C
tao at hayop may unawaan

e|---------------------------------------------------------------------------------------------|
B|--10s12--10---------------------------------------12--10-------------------------------------|
G|-------------12-10-9-9h10-9--------------------10--------12-10-------------------------------|
D|-----------------------------12b-12b-10-10-10------------------12-10--12brb---10--12brb--10--|
A|---------------------------------------------------------------------------------------------|
E|---------------------------------------------------------------------------------------------|
      C          F   G         C
....ako'y may alaga asong mataba
                    F         G                 C
bunto't ay mahaba makinis ang mukha
    Am         Em         Dm         C
kinagat niya ako kinagat ko rin sya
                            F         G         C
ang kawawa kong alaga pulutan ko na


e|--11p9-11p9----11p9-11p9----11p9-11p9----------------------------------------|
B|------------9-----------9----------------------------------------------------|
G|--------------------------------------10---10/12-12--12-10-9-12-10-9---------|
D|---------------------------------------------------------------------10~-----|
A|-----------------------------------------------------------------------------|
E|-----------------------------------------------------------------------------|


************************************

| /   slide up
| \   slide down
| h   hammer-on
| p   pull-off
| ~   vibrato
| b   Bend
| brb Bend release bend

************************************
Suggest correction
Give kudos to tab author, rate the tab!
1 2 3 4 5
comments
print report bad tab
guest
You may want to rate the tab now too:
select rating
Wanna post a correction for this tab? Suggest correction