Oops, an error
Loading. Please wait.

Bahay Bahayan Tab

46 views 3 this week
no commentswrite comment
1 2 3 4 5
3 more votes to show rating
add to favorites
launch autoscroll
font size
0
reset
how to read this tab
guitar tuner
Autoscroll
slow
fast
+/-
esc
set tempo
stop
Help us to improve Ultimate-Guitar.com Take our survey!
×
Author
Difficulty
About this tab version
Idk but it's the first tab written for this song. Was this info helpful? Yes No
BAHAY BAHAYAN - Siakol
Tabbed By: Vince Louie Hernandez
twitter: www.twitter.com/naguenyong_vinx
Don't Forget To Rate!

[Intro] D - G - A - G-D - Bm - F#m - Em - G-A

        D               G               A          G    D
e|--------0------|-------0------|--------0------|----------3-2-0-----|
B|----3-----3-3--|----3----3-3--|----2-----2-2--|----3------------3--|
G|------2----2---|-----0----0---|------2----2---|-----0--------------|
D|--0------------|--------------|---------------|-------0~-----------|
A|---------------|--------------|--0------------|--------------------|
E|---------------|--3-----------|---------------|--3-----------------|

        Bm              F#m             Em         G    A
e|--------0------|-------0------|--------0------|----------3-2-0--2--|
B|----3-----3-3--|----2----2-2--|----0-----0-0--|----3---------------|
G|------4----4---|------2---2---|------0----0---|-----0--------------|
D|---------------|--------------|---------------|--------------------|
A|--2------------|--------------|---------------|-------0~-----------|
E|---------------|--2-----------|--0------------|--3-----------------|


************************************

| ~  Vibrato

************************************
Suggest correction
Give kudos to tab author, rate the tab!
1 2 3 4 5
comments
print report bad tab
guest
You may want to rate the tab now too:
select rating
Wanna post a correction for this tab? Suggest correction