Oops, an error
Loading. Please wait.

Bakit Ba Tab

version 3
version 3
23,745 views 6 this week
4 commentsread comments
1 2 3 4 5
x 3
add to favorites
launch autoscroll
font size
0
reset
how to read this tab
guitar tuner
×
Best way to learn
"Bakit Ba"
Autoscroll
slow
fast
+/-
esc
set tempo
stop
ETO TALAGA ANG GINAWA NG SIAKOL SA ADLIB NG BAKIT BA
KUMUSTA LAHAT NG GUITARISTA NA KAGAYA KO FUCK YOU KAYO MGA NAGPAPANGGAP NA MAGAGALING
THIS IS 100% CORRECT KAHIT ISABAY NIYO PA SA CD
adlib:

   G                   Em                  C                       D
6---------------------------------------------------------------------------|
5---------------------------------------------------------------------------|
4--5--7---------------------------------------------------------------------|
3-------4--5--7-----------------------------------------------------7--9--7-|
2----------------5--7--8--10--8--10s12--12------12--10--8--10--8--7---------|
1---------------------------------------------------------------------------|

           G                        Em       C              D
6------------------------------------------------------------------------------------------------|
5------------------------------------------------------------------------------------------------|
4------------------------------------------------------------------------------------------------|
3---------------------------------------9------------7--9------------------9--7--9---------------|
2-7--8--10---------------------10--8--7----7--8--8---------7--8--10--8--7-----------7--8s10--10--|
1-----------10--8--7--10--8--7-------------------------------------------------------------------|

    C                D                 C             D
6---------------------------------------------------------------------|
5---------------------------------------------------------------------|
4---------------------------------------------------------------------|
3---------------------------------------------------------------------|
2----------------8-----------8--8s10--------------8----------8--8s10--|
1----10--8--7--8----10--8--7----------10--8--7--8---10--8--7----------|

  C         D                   E                                    A
6--------------------------------------------------------------------------|
5--------------------------------------------------------------------------|
4--------------------------------------------------------------------------|
3--------------------------------------------------------------------------|
2---------8---------8--8s10-10s12--12--12------------------10-12b-12b-10---|
1-10-8-7-8---10-8-7-----------------------12-10-9-10-9---------------------|
TAB BY: PAULO
Suggest correction
Give kudos to tab author, rate the tab!
1 2 3 4 5
comments
print report bad tab
4 comments total. Showing first comments.
0 reply
joef 60 Dec 24, 2005 02:10 AM

ang hirap basahin ng tab mo.. baliktad

0 reply
jadelgcapitan0 43 Dec 18, 2007 09:27 PM

hehehe... bat baliktad???

+1 reply
killmahpitosh!! 10 Jan 25, 2009 11:17 PM

cguru bliktad din utak mo?
yabang mag mura bliktad pla utak!!!!
panggaP ka din..hehe gaga mu!!!

guest
You may want to rate the tab now too:
select rating
Wanna post a correction for this tab? Suggest correction