Oops, an error
Loading. Please wait.

Bakit Ba Tab

version 5
version 5
by Siakol
266 views 3 this week
no commentswrite comment
1 2 3 4 5
3 more votes to show rating
add to favorites
launch autoscroll
font size
0
reset
how to read this tab
guitar tuner
×
Best way to learn
"Bakit Ba"
Autoscroll
slow
fast
+/-
esc
set tempo
stop
Author
Difficulty
intermediate
bakit ba
by: Siakol
solo tabs
by: aldin mendoza

e|------------------------------------------|
B|-------------------7--8--/10--8--10/12--12|
G|-------------7--9-------------------------|
D|-------9--10------------------------------|
A|10--12------------------------------------|
E|------------------------------------------|

e|-------------------------------10-8-7-10-8-7----------------|
B|12-10-8-10-8-7-7-8---7-8/10-10---------------10-8-10-8-7-8-8|
G|-------------------8----------------------------------------|
D|------------------------------------------------------------|
A|------------------------------------------------------------|
E|------------------------------------------------------------|

e|---------------------------|
B|----7-8-10-8-7-------7-8/10|
G|7-9------------9-7-9-------|
D|---------------------------|
A|---------------------------|
E|---------------------------|

e|10-8-7-8---10-8-7------10-8-7---10-8-7-----10-8-7---10-8-7---------------12-10-9-10-9--------------|
B|---------8--------8/10--------8-------8/10--------8--------8/10-10-12-12--------------10-10/12-10--|
G|---------------------------------------------------------------------------------------------------|
D|---------------------------------------------------------------------------------------------------|
A|---------------------------------------------------------------------------------------------------|
E|---------------------------------------------------------------------------------------------------|
Suggest correction
Give kudos to tab author, rate the tab!
1 2 3 4 5
comments
print report bad tab
guest
You may want to rate the tab now too:
select rating
Wanna post a correction for this tab? Suggest correction