Oops, an error
Loading. Please wait.

Bakit Ba Tab

version 3
version 3

Interactive

by Siakol
67,589 views 21 this week
8 commentsread comments
1 2 3 4 5
x 24
add to favorites
launch autoscroll
font size
0
reset
how to read this tab
guitar tuner
×
Best way to learn
"Bakit Ba"
Autoscroll
slow
fast
+/-
esc
set tempo
stop
Author
bakit ba?
siakol

[Intro
]G-Em-C-D(2x)

[Verse]
G-Bm-Em-Am-D(4x)


G-Em-C-D(2x) 
(then)
C-D(3x)
 
G-Em-C-D(2x) 
then C-D(3x)& E

(2 frets higher) A-F#m-D-E(2x) 
then D-E(3x)
[outro]
A-F#m-D-E2x)

  [Solo]
e|--------------------------------------------------------------------------|
B|--------------------------------------------------------------------------|
G|-----4-5-7-9-11-12-14-12-14s16-16-16-14-12-14-12-11-12-11----11-12s14-14--|
D|-5-7------------------------------------------------------12--------------|
A|--------------------------------------------------------------------------|
E|--------------------------------------------------------------------------|

e|----------------------------------------------------------------------------|
B|-15-13-12-15-13-12----------------------------------------------------------|
G|-------------------14-12-14-12-11s12-------11-12-14-12-11----------11-12-14-|
D|-------------------------------------12-14----------------14-12-14----------|
A|----------------------------------------------------------------------------|
E|----------------------------------------------------------------------------|

e|----------------------------------|-------------12-10-9-10-9-7-8------------|
B|-15-13-12-13----15-13-12----------|-----------------------------------------|
G|-------------12----------12-12s14-|-14-14s16-16-----------------------------|
D|----------------------------------|-----------------------------------------|
A|----------------------------------|-----------------------------------------|
E|----------------------------------|-----------------------------------------|

************************************
 
|s - slide

************************************
Suggest correction
comments
print report bad tab
8 comments total. Showing first comments.
0 reply
weirdo1 10 Apr 16, 2006 05:58 PM

lupet!

0 reply
gakkung85 20 Mar 24, 2007 02:21 AM

nice!!

0 reply
Legion_Lead18 10 May 11, 2007 10:30 PM

weee.. lupet mo!

guest
You may want to rate the tab now too:
select rating
Wanna post a correction for this tab? Suggest correction