Oops, an error
Loading. Please wait.

Bakit Ba Tab

version 4
version 4

Interactive

8,251 views 18 this week
1 commentread comment
1 2 3 4 5
please rate
add to favorites
launch autoscroll
font size
0
reset
how to read this tab
guitar tuner
Autoscroll
slow
fast
+/-
esc
set tempo
stop
Help us to improve Ultimate-Guitar.com Take our survey!
×
Contributor
Difficulty
abkdeg 57
novice
TABBED BY: AMANDO YVES DUQUE MICLAT-I
E-MAIL: yves_miclat1@yahoo.com
HOME PLACE: PARANG,CONCEPCION,TARLAC CITY

BAND: DRAINAGE BAND
MGA PARE SARILI KO TONG GAWA....
RATE NYU NEH...
KUNG MAY PROBLEM JUST E MAIL ME...
SALAMAT...



 STANZA:
 NAG AALIW SA USOK AT BEER LANG ANG KASAMA....
 [-----------------------------------1/8--7-8-----------------------------]
 [--------------------------------------------8^(8)-----------------------]
 [------------------------------------------------------------------------]
 [------------------------------------------------------------------------]
 [------------------------------------------------------------------------]
 [------------------------------------------------------------------------]
MAS OK PANG LAGING GANITO NALILIMUTAN KA...
 [------------------------------------8-7-8-7-----------------------------]
 [--------------------------------------------8^(8)-----------------------]
 [------------------------------------------------------------------------]
 [------------------------------------------------------------------------]
 [------------------------------------------------------------------------]
 [------------------------------------------------------------------------]
HINDI KO MALAMAN SAYO KUNG ANO ANG DRAMA MO...
 [-------------------------------------5/7-8-10-8-7-----------------------]
 [---------------------------------------------------8^(8)----------------]
 [------------------------------------------------------------------------]
 [------------------------------------------------------------------------]
 [------------------------------------------------------------------------]
 [------------------------------------------------------------------------]
BAKIT LAGI MO NA LANG SINASAKTAN ANG PUSO KO...
 [------------------------------------------------------------------------]
 [-------------------------------------7-8-10-8-7-------------------------]
 [------------------------------------------------8-8/10-8^^(8)-----------]
 [------------------------------------------------------------------------]
 [------------------------------------------------------------------------]
 [------------------------------------------------------------------------]
TANDANG TANDA KO PA NOONG TAYO'Y NAMAMASYAL...
 [-----------------------------------1/8--7-8-----------------------------]
 [--------------------------------------------8^(8)-----------------------]
 [------------------------------------------------------------------------]
 [------------------------------------------------------------------------]
 [------------------------------------------------------------------------]
 [------------------------------------------------------------------------]
 
NAPASULYAP LNG SA IBA BIGLA MO NA KONG SINAMPAL...
 [------------------------------------8-7-8-7-----------------------------]
 [--------------------------------------------8^(8)-----------------------]
 [------------------------------------------------------------------------]
 [------------------------------------------------------------------------]
 [------------------------------------------------------------------------]
 [------------------------------------------------------------------------]
AT SA KASESELOS MO AY LALUNG MINAHAL KITA...
 [-------------------------------------5/7-8-10-8-7-----------------------]
 [---------------------------------------------------8^(8)----------------]
 [------------------------------------------------------------------------]
 [------------------------------------------------------------------------]
 [------------------------------------------------------------------------]
 [------------------------------------------------------------------------]
SUBALIT NASAAN KA NA SUMAMA SA IBA...
 [--------------------------------------10--------------------------------]
 [---------------------------------7/8------------------------------------]
 [------------------------------------------------------------------------]
 [------------------------------------------------------------------------]
 [------------------------------------------------------------------------]
 [------------------------------------------------------------------------]
cHORUS:
 BAKIT BAKIT BA...          
 [----7-----7-7-8-7------9---------7-----7--------------------------------]
 [------8-----------8----------------8-----8------------------------------]
 [--------7------------7---------9-----9------9---------------------------]
 [------------------------------------------------------------------------]
 [------------------------------------------------------------------------]
 [------------------------------------------------------------------------]
 INIWAN MONG NAI IISA...
 [------------------------------------------------------------------------]
 [-----8---10-8/10-----------10-------12-10-------------------------------]
 [---9---------------------------9----------------------------------------]
 [10-----10---------------12-------12-------------------------------------]
 [------------------------------------------------------------------------]
 [------------------------------------------------------------------------]
 BAKIT BAKIT BA?...
 [----7-----7-7-8-7------9---------7-----7--------------------------------]
 [------8-----------8----------------8-----8------------------------------]
 [--------7------------7---------9-----9------9---------------------------]
 [------------------------------------------------------------------------]
 [------------------------------------------------------------------------]
 [------------------------------------------------------------------------]
 
 SA AKIN BAY NAGSAWA NA...
 [------------------------------------------------------------------------]
 [-----8---10-8/10-----------10-------12-10-------------------------------]
 [---9---------------------------9----------------------------------------]
 [10-----10---------------12-------12-------------------------------------]
 [------------------------------------------------------------------------]
 [------------------------------------------------------------------------]
 SINUSUNOD NAMAM KITA...
 [------------------------------------------------------------------------]
 [-----8---10-8/10-----------10-------12-10-------------------------------]
 [---9---------------------------9----------------------------------------]
 [10-----10---------------12-------12-------------------------------------]
 [------------------------------------------------------------------------]
 [------------------------------------------------------------------------]
 KAHIT ANO KINAKAYA...
 [------------------------------------------------------------------------]
 [-----8---10-8/10-----------10-------12-10-------------------------------]
 [---9---------------------------9----------------------------------------]
 [10-----10---------------12-------12-------------------------------------]
 [------------------------------------------------------------------------]
 [------------------------------------------------------------------------]
 WALA PA RING KWENTA...
 [------------------------------------------------------------------------]
 [-----8---10-8/10-----------10-------12-10-------------------------------]
 [---9---------------------------9----------------------------------------]
 [10-----10---------------12-------12-------------------------------------]
 [------------------------------------------------------------------------]
 [------------------------------------------------------------------------]
 BAKIT BA...
 (INTERLUDE) G-Em-C-D (UNG LEAD G-Em-C-D DIN UNG LEAD PATTERN NYA!..)
 
(E2 YUNG LEAD INTERLUDE PATTERN)
 [----7-----7-7-8-7------9---------7-----7--------------------------------]
 [------8-----------8----------------8-----8------------------------------]
 [--------7------------7---------9-----9------9---------------------------]
 [------------------------------------------------------------------------]
 [------------------------------------------------------------------------]
 [------------------------------------------------------------------------]

 [------------------------------------------------------------------------]
 [-----8---10-8/10-----------10-------12-10-------------------------------]
 [---9---------------------------9----------------------------------------]
 [10-----10---------------12-------12-------------------------------------]
 [------------------------------------------------------------------------]
 [------------------------------------------------------------------------]
 
 [----7-----7-7-8-7------9---------7-----7--------------------------------]
 [------8-----------8----------------8-----8------------------------------]
 [--------7------------7---------9-----9------9---------------------------]
 [------------------------------------------------------------------------]
 [------------------------------------------------------------------------]
 [------------------------------------------------------------------------]

 [------------------------------------------------------------------------]
 [-----8---10-8/10-----------10-------12-10-------------------------------]
 [---9---------------------------9----------------------------------------]
 [10-----10---------------12-------12-------------------------------------]
 [------------------------------------------------------------------------]
 [------------------------------------------------------------------------]

   *****END NG INTERLUDE( 2ND CHORUS, SAME PATTERN TAPOS  ADLIBSOLO)*****


 ADLIB(SOLO):
(CHORD PATTERN G-Em-C-D-G-Em-C-D-C-D-C-D-C-D-E THEN 1 STEP HIGHER OR 2 FRETS HIGHER)

          
 [-------------0-2-3-3/5-3-5-5/7-----7-5-3-5-3-2-3-2-0-2-3-/5-5-----------]
 [-----0-1-1/3------------------------------------------------------------]
 [-0-3--------------------------------------------------------------------]
 [------------------------------------------------------------------------]
 [------------------------------------------------------------------------]
 [------------------------------------------------------------------------]
            
 [---10-8-7-10-8-7--------------------0-2-3-3/5-3-2-0---0-2-3-3/5---------]
 [-----------------10-8-10-8-7-8-----3----------------3-------------------]
 [------------------------------------------------------------------------]
 [------------------------------------------------------------------------]
 [------------------------------------------------------------------------]
 [------------------------------------------------------------------------]
             
 [-10-8-7-8---------10-8-7------------------------------------------------]
 [----------8^8------------8-8/10^10--------------------------------------
 [------------------------------------------------------------------------]
 [------------------------------------------------------------------------]
 [------------------------------------------------------------------------]
 [------------------------------------------------------------------------]

 
 [-10-8-7-8---------10-8-7------------------------------------------------]
 [----------8^8------------8-8/10^10--------------------------------------
 [------------------------------------------------------------------------]
 [------------------------------------------------------------------------]
 [------------------------------------------------------------------------]
 [------------------------------------------------------------------------]

 [-10-8-7-8---------10-8-7------------------12-10-9-10-9-12-12/14---------]
 [----------8^8------------8-8/10-10-/12-12-----------------------14------]
 [------------------------------------------------------------------------]
 [------------------------------------------------------------------------]
 [------------------------------------------------------------------------]
 [------------------------------------------------------------------------]

    ***********END OF SOLO HIGHER CHORUS CHORDS ***************
   (=A-F#m-D-E-A-F#m-D-E-D-E-D-E-D-E..... AND SO ON...)

(PATI YUNG LEAD 2FRETS HIGHER DIN PAREHO LANG IUSOG MO LANG..)

REPEAT CHORUS 2X...
 LEAD  END SA 
[--------------]
[-10-----------]
[-11-----------]
[-12-----------]
[--------------]
[--------------]

*******************END OF SONG*********************
SALAMAT PO!...



Suggest correction new What's this?
You can suggest a correction to this tab. Community and Mods will review your correction and vote to approve or reject it.
comments
We did not receive enough feedback on this tab! Please rate:
print report bad tab
1 2 3 4 5
1 comment total.
0 reply
jerrame 20 wrote on July 2 2013, 10:35 pm

ayus to ahh...yung chorus part may lead...

I want to post or [tab]
guest
You may want to rate the tab now too:
select rating
Please do not post tabs as comments. Select "correction" instead!