Oops, an error
Loading. Please wait.

Balang Araw Tab

version 1
version 1

Whole song

Interactive

4,745 views 6 this week
no commentswrite comment
1 2 3 4 5
please rate
add to favorites
launch autoscroll
font size
0
reset
how to read this tab
guitar tuner
Autoscroll
slow
fast
+/-
esc
set tempo
stop
Help us to improve Ultimate-Guitar.com Take our survey!
×
Difficulty
novice
Title    : Balang Araw  
Artist   : Siakol
Tabbed by: Ramon O. Ferrer
e-mail   : chochany17@yahoo.com
School   : Unciano College (aw! sikat!)


"kun san ka masaya.."


Intro
        D        F#m      G        A 
E |--------------------------------------------------------------|
B |--------------------------------------------------------------|
G |-----7--------------------------------------------------------| 
D |-----7--------4--------5--------7-----------------------------| 2x
A |-----5--------4--------5--------7-----------------------------|
E |--------------2--------3--------5------5h6-6p5----------------|


Verse1 
        D        F#m      G        A
E |-----5--------2--------3--------5-----------------------------|
B |-----7--------2--------3--------5-----------------------------|       
G |-----7--------2--------4--------6-----------------------------|    
D |-----7--------4--------5--------7-----------------------------| 2x 
A |-----5--------4--------5--------7-----------------------------|     
E |--------------2--------3--------5-----------------------------|   
   Mukhang hindi mo pa siya nalilimutan
   Tila dala mo pa bunga ng kanyang paglisan

        G        A          G         A
E |-----3--------5----------3---------5--------------------------|
B |-----3--------5----------3---------5--------------------------|
G |-----4--------6----------4---------6--------------------------| 
D |-----5--------7----------5---------7--------------------------| 
A |-----5--------7----------5---------7--------------------------|
E |-----3--------5----------3---------5--------------------------|

   At makikita sa mata    Ang pagkawala ng sigla



Verse2   D-F#m-G-A (2x)
   Mukhang pinipilit mo lang ang ngumiti
   Na di naman nababakas sayong labi
         G-A-G-A
   At di ko na napupuna
   Binibitawan mong tawa


Chorus
        D        F#m      G        A
E |-----5--------2--------3--------5-----------------------------|
B |-----7--------2--------3--------5-----------------------------|
G |-----7--------2--------4--------6-----------------------------| 
D |-----7--------4--------5--------7-----------------------------| 2x
A |-----5--------4--------5--------7-----------------------------|
E |--------------2--------3--------5-----------------------------|   
   Hayaan mo nalang ang pagpatak ng luha
   Tulad ng ulan na dulot satin ay baha

        D        F#m      G        Gm
E |-----5--------2--------3--------3-----------------------------|
B |-----7--------2--------3--------3-----------------------------|
G |-----7--------2--------4--------3-----------------------------| 
D |-----7--------4--------5--------5-----------------------------|
A |-----5--------4--------5--------5-----------------------------|
E |--------------2--------3--------3-----------------------------|
   At balang araw ay makikita mo

        F#m      Bm       G        A
E |-----2--------2--------3--------5-----------------------------|
B |-----2--------3--------3--------5-----------------------------|
G |-----2--------4--------4--------6-----------------------------| 
D |-----4--------4--------5--------7-----------------------------| 
A |-----4--------2--------5--------7-----------------------------|
E |-----2--------2--------3--------5-----------------------------|
   Sa pagtila nito ay may pag asa pa na naghihintay sayo

Intro
Verse3
   Mukhang nakakulong kana sa alaala
   Palayain mo't ibuhos ang nadarama
   At pagkatapos ng lahat
   Wala na sa dibdib mo ang bigat
Chorus

Adlib
E |----------------------------------------------------------------|
B |----------------------------------------------------------------|
G |--10b-10b-10-8-6-8-6------7---7-12-10-9-12-10-9-----------------| 
D |----------------------7-9---9-----------------------------------| 
A |----------------------------------------------------------------|
E |----------------------------------------------------------------|
      
E |----------------------------------------------------------------|
B |--14b~141414--12b~121212--10\12b-12b--10-8-7-8-7----------------|
G |----------------------------------------------------------------| 
D |----------------------------------------------------------------| 
A |----------------------------------------------------------------|
E |----------------------------------------------------------------|

E |----------------------------------------------------------------|
B |----------------------------------------------------------------|
G |--12-10-9--12-10-9/7--7-7-7-7---12-10-9--12-10-9\7--7-7-7-------| 
D |----------------------7-7-7-7-----------------------7-7-7-------| 
A |----------------------5-5-5-5-----------------------5-5-5-------|
E |----------------------------------------------------------------|   

Chorus

-End-

pde po khit ndi bar chords gamitin nu dito o kaya kun gusto nu power chords 
gamitin nu.. bahala kayo kun san kayo masaya ok!?..c",) 
Suggest correction new What's this?
You can suggest a correction to this tab. Community and Mods will review your correction and vote to approve or reject it.
comments
We did not receive enough feedback on this tab! Please rate:
print report bad tab
1 2 3 4 5
guest
You may want to rate the tab now too:
select rating
Please do not post tabs as comments. Select "correction" instead!