Oops, an error
Loading. Please wait.

Gabay Chords

version 3
version 3

Whole song

53,594 views 189 this week
no commentswrite comment
1 2 3 4 5
please rate
add to favorites
launch autoscroll
font size
0
reset
transpose
0
reset
display chords
guitar tuner
Autoscroll
slow
fast
+/-
esc
set tempo
stop
Help us to improve Ultimate-Guitar.com Take our survey!
×
Author
Title      :    Gabay
Artist     :    Siakol

For any Comments and Suggestions:

Text Me:     09082360710/09156169501
Email Me:    jhenson_21@rocketmail.com
Friendster:  boybassista@yahoo.com

Tuning: Standard

[Intro] D-A-Bm--F#m-G-D-E

e-----------------------------------------------------------------------------------|
b-----------------------------------------------------------------------------------|
g-7-7-7-7-7---------------4-4-4-4-4--------------------------7-7-7-7-7-7--9-9-9-9-9-|
D-7-7-7-7-7---7-7-7-7-7---4-4-4-4-4--4-4-4-4-4---5-5-5-5-5---7-7-7-7-7-7--9-9-9-9-9-|
A-5-5-5-5-5---7-7-7-7-7---2-2-2-2-2--4-4-4-4-4---5-5-5-5-5---5-5-5-5-5----7-7-7-7-7-|
E-------------5-5-5-5-5---------------2-2-2-2-2--3-3-3-3-3-----------=--------------|

 D        A         Bm           F#m
Paririnig sayo sa pagdating mo sa mundo
 G             D            E
Ang katahimikan malayo sa gulo
 D      A        Bm             F#m          
Sa inonsenteng mga mata aking ipapakita
  G           D               E
Walang kamunduhan walang mangagamba

[Refrain]

Riff:
e---------------------------------------------------------------------|
b---------------------------------------------------------------------|
g--7-7-7-7-7-7---9-9-9-9-9-9-9---1-1-1-1-1-1-1----------------/////---|
D--x-x-x-x-x-x---x-x-x-x-x-x-x---x-x-x-x-x-x-x----------------/////---|
A--5-5-5-5-5-5---7-7-7-7-7-7-7---9-9-9-9-9-9-9----------------/////---|
E---------------------------------------------------------------------|

Humawak ka lamang sa aking kamay, na matuklasan ang ganda ng buhay
Iingatan ka di  pababayaan, Gabay mo ako sa iyong kapaligiran


[Chorus]

(Do Cp: D-A-Bm-F#m-G-D-E )
Kaluskos ng dahon, huni ng mga ibon malayo sa dilim ng kahapon
Hampas ng mga alon kasiyahan sa nayo mga batang naglalaro na maghapon
Simo'y ng hangin sari-saring mga tanawin paligid na iyong tatahakin  
Pagkat walang sawang kita ikaw ay aarugain sa paraisong kinalalagyan natin

[Intro] D-A-Bm--F#m-G-D-E

e-----------------------------------------------------------------------------------|
b-----------------------------------------------------------------------------------|
g-7-7-7-7-7---------------4-4-4-4-4--------------------------7-7-7-7-7-7--9-9-9-9-9-|
D-7-7-7-7-7---7-7-7-7-7---4-4-4-4-4--4-4-4-4-4---5-5-5-5-5---7-7-7-7-7-7--9-9-9-9-9-|
A-5-5-5-5-5---7-7-7-7-7---2-2-2-2-2--4-4-4-4-4---5-5-5-5-5---5-5-5-5-5----7-7-7-7-7-|
E-------------5-5-5-5-5---------------2-2-2-2-2--3-3-3-3-3-----------=--------------|


(Do Cp: D-A-Bm-F#m-G-D-E )
Pagdarama sayo upang mahubong ng husto ang kabutihan, sa kapwa tao
At Sa murang mong isipan ay dapat nang malaman, ay may diyos na pasalamatan


[Refrain]

Riff:
e---------------------------------------------------------------------|
b---------------------------------------------------------------------|
g--7-7-7-7-7-7---9-9-9-9-9-9-9---1-1-1-1-1-1-1----------------/////---|
D--x-x-x-x-x-x---x-x-x-x-x-x-x---x-x-x-x-x-x-x----------------/////---|
A--5-5-5-5-5-5---7-7-7-7-7-7-7---9-9-9-9-9-9-9----------------/////---|
E---------------------------------------------------------------------|

Humawak ka lamang sa aking kamay, na matuklasan ang ganda ng buhay
Iingatan ka di  pababayaan, Gabay mo ako sa iyong kapaligiran


[Chorus]

(Do Cp: D-A-Bm-F#m-G-D-E )
Kaluskos ng dahon, huni ng mga ibon malayo sa dilim ng kahapon
Hampas ng mga alon kasiyahan sa nayo mga batang naglalaro na maghapon
Simo'y ng hangin sari-saring mga tanawin paligid na iyong tatahakin  
Pagkat walang sawang kita ikaw ay aarugain sa paraisong kinalalagyan natin

 ************************************

| x  Dead note
| /  Slide up

************************************
www.ultimate-guitar.com

'=================='
/   RoCk En RoLL   \
'------------------'

Suggest correction
What's this?
You can suggest a correction to this tab. Community and Mods will review your correction and vote to approve or reject it.
comments
We did not receive enough feedback on this tab! Please rate:
print report bad tab
1 2 3 4 5
guest
You may want to rate the tab now too:
select rating
Please do not post tabs as comments. Select "correction" instead!