Oops, an error
Loading. Please wait.

Gabayanak Tab

1,916 views 1 this week
no commentswrite comment
1 2 3 4 5
3 more votes to show rating
add to favorites
launch autoscroll
font size
0
reset
how to read this tab
guitar tuner
Autoscroll
slow
fast
+/-
esc
set tempo
stop
Help us to improve Ultimate-Guitar.com Take our survey!
×
Title:Gabay
Artist: Siakol
Album: Kabilang Mundo

add me @ friendster.com - mykro85@yahoo.com     

Intro

E--------------------------------------------------------|
B--------------------------------------------------------|
G----77777777--------------------------------------------|
D----77777777--77777777--99999999--77777777--55555555----|  
A----55555555--77777777--99999999--77777777--55555555----|
E--------------55555555--77777777--55555555--33333333----|
.......................p.m................................
E-------------------------------------|
B-------------------------------------|
G----77777777--99999999---------------|
D----77777777--99999999--77777777-----|  
A----55555555--77777777--77777777-----|
E------------------------55555555-----|
................p.m....................

Verse1

E--------------------------------------------------------|
B--------------------------------------------------------|
G----77777777--------------------------------------------|
D----77777777--77777777--99999999--77777777--55555555----|  
A----55555555--77777777--99999999--77777777--55555555----|
E--------------55555555--77777777--55555555--33333333----|
.......................p.m................................
E-------------------------------------|
B-------------------------------------|
G----77777777--99999999---------------|
D----77777777--99999999--77777777-----|  2x
A----55555555--77777777--77777777-----|
E------------------------55555555-----|
................p.m....................
maririnig sa yo 
sa pagdating mo sa mundo
ang katahimikan malayo sa gulo
sa inusenteng mga mata aking ipapakita
wala ang kaguluhan, walang pangangamba

Pre-Chorus
G1
E--------------------------------------------|
B--------------------------------------------|
G----7/9-9/10-10/11--11/-12--12/13---13-13---|
D----x/x-x/x--x-/x--x-/x----x-/x-----x--x----|  
A----5/7-7/8--8-/9--9-/10---10/11----11-11---|
E--------------------------------------------|

E--------------------------------------|
B--------------------------------------|
G----5--7/8-8/9-9/10--10/11--11-11-11--|
D----x--x/x-x/x-x/x---x-/x---x--x--x---|  2x
A----3--5/6-6/7-7/8---8-/9---9--9--9---|
E--------------------------------------|

E----------------------------------|
B----------------------------------|
G----7777777777--------------------|
D----7777777777-----77777777--7-7--|  
A----5555555555-----77777777--7-7--|
E-------------------55555555--5-5--|

G2
E---------------------------------------|---------------------------------|
B---------------------------------------|---------------------------------|
G----7777777777-------------------------|---------------------------------|
D----7777777777-----77777777--7-7--77---|--9999999999--77777777--7-7--77--|  2x
A----5555555555-----77777777--7-7--77---|--9999999999--77777777--7-7--77--|
E-------------------55555555--5-5--55---|--7777777777--55555555--5-5--55--|

humawak ka lang sa aking kamay 
ng matuklasan ng ganda nitong ating buhay
iingatan ka di pababayaan
gabay moko sayong kapaligiran

Chorus

E--------------------------------------------------------|
B--------------------------------------------------------|
G----77777777--------------------------------------------|
D----77777777--77777777--99999999--77777777--55555555----|  
A----55555555--77777777--99999999--77777777--55555555----|
E--------------55555555--77777777--55555555--33333333----|
.......................p.m................................
E-------------------------------------|      
B-------------------------------------|      
G----77777777--99999999---------------|      
D----77777777--99999999--77777777-----|  
A----55555555--77777777--77777777-----|      
E------------------------55555555-----|
................p.m....................

E--------------------------------------------------------|
B--------------------------------------------------------|
G----77777777--------------------------------------------|
D----77777777--77777777--99999999--77777777--55555555----|  
A----55555555--77777777--99999999--77777777--55555555----|
E--------------55555555--77777777--55555555--33333333----|
.......................p.m................................
E-------------------------------------|      
B-------------------------------------|      
G----77777777--99999999--77777777-----|      
D----77777777--99999999--77777777-----|  
A----55555555--77777777--55555555-----|      
E-------------------------------------|
................p.m....................

kaluskos ng dahon
huni ng mga ibon
malayo sa dilim ng kahapon
hampas ng mga alon
kasiyahan sa nayon
mga batang naglalaro lang maghapon
simoy ng hangin
sari saring tanawin
paligid na iyong tatahakin
pagkat walang sawa kitang aarugahin
sa paraisong kinalalagyan natin

Interlude

E--------------------------------------------------------|
B--------------------------------------------------------|
G----77777777--------------------------------------------|
D----77777777--77777777--99999999--77777777--55555555----|  
A----55555555--77777777--99999999--77777777--55555555----|
E--------------55555555--77777777--55555555--33333333----|
.......................p.m................................
E-------------------------------------|
B-------------------------------------|
G----77777777--99999999---------------|
D----77777777--99999999--77777777-----|  
A----55555555--77777777--77777777-----|
E------------------------55555555-----|
................p.m....................

Verse2

E--------------------------------------------------------|
B--------------------------------------------------------|
G----77777777--------------------------------------------|
D----77777777--77777777--99999999--77777777--55555555----|  
A----55555555--77777777--99999999--77777777--55555555----|
E--------------55555555--77777777--55555555--33333333----|
.......................p.m................................
E-------------------------------------|
B-------------------------------------|
G----77777777--99999999---------------|
D----77777777--99999999--77777777-----|  2x
A----55555555--77777777--77777777-----|
E------------------------55555555-----|
................p.m....................

pagdarama sayo
upang mahubog ng husto
ang kabutihan sa kapwa tao
at sa mura mong isipan
dapat mo ng malaman
na may dyos tau na pasalamatan

Pre-Chorus
G1
E--------------------------------------------|
B--------------------------------------------|
G----7/9-9/10-10/11--11/-12--12/13---13-13---|
D----x/x-x/x--x-/x--x-/x----x-/x-----x--x----|  
A----5/7-7/8--8-/9--9-/10---10/11----11-11---|
E--------------------------------------------|


E--------------------------------------|
B--------------------------------------|
G----5--7/8-8/9-9/10--10/11--11-11-11--|
D----x--x/x-x/x-x/x---x-/x---x--x--x---|  2x
A----3--5/6-6/7-7/8---8-/9---9--9--9---|
E--------------------------------------|

E----------------------------------|
B----------------------------------|
G----7777777777--------------------|
D----7777777777-----77777777--7-7--|  
A----5555555555-----77777777--7-7--|
E-------------------55555555--5-5--|

G2
E---------------------------------------|---------------------------------|
B---------------------------------------|---------------------------------|
G----7777777777-------------------------|---------------------------------|
D----7777777777-----77777777--7-7--77---|--9999999999--77777777--7-7--77--|  2x
A----5555555555-----77777777--7-7--77---|--9999999999--77777777--7-7--77--|
E-------------------55555555--5-5--55---|--7777777777--55555555--5-5--55--|

humawak ka lang sa aking kamay 
ng matuklasan ganda nitong ating buhay
iingatan ka di pababayaan
gabay moko sayong kapaligiran

Chorus

E--------------------------------------------------------|
B--------------------------------------------------------|
G----77777777--------------------------------------------|
D----77777777--77777777--99999999--77777777--55555555----|  
A----55555555--77777777--99999999--77777777--55555555----|
E--------------55555555--77777777--55555555--33333333----|
.......................p.m................................
E-------------------------------------|
B-------------------------------------|
G----77777777--99999999---------------|
D----77777777--99999999--77777777-----|  
A----55555555--77777777--77777777-----|
E------------------------55555555-----|
................p.m....................

E--------------------------------------------------------|
B--------------------------------------------------------|
G----77777777--------------------------------------------|
D----77777777--77777777--99999999--77777777--55555555----|  
A----55555555--77777777--99999999--77777777--55555555----|
E--------------55555555--77777777--55555555--33333333----|
.......................p.m................................
E-------------------------------------|      
B-------------------------------------|      
G----77777777--99999999--77777777-----|      
D----77777777--99999999--77777777-----|  
A----55555555--77777777--55555555-----|      
E-------------------------------------|
................p.m....................

kaluskos ng dahon
huni ng mga ibon
malayo sa dilim ng kahapon
hampas ng mga alon
kasiyahan sa nayon
mga batang naglalaro lang maghapon
simoy ng hangin
sari saring tanawin
paligid na iyong tatahakin
pagkat walang sawa kitang aarugahin
sa paraisong kinalalagyan natin


E--------------------------------------------------------|
B--------------------------------------------------------|
G----77777777--------------------------------------------|
D----77777777--77777777--99999999--77777777--55555555----|  
A----55555555--77777777--99999999--77777777--55555555----|
E--------------55555555--77777777--55555555--33333333----|
.......................p.m................................
E-------------------------------------|
B-------------------------------------|
G----77777777--99999999---------------|
D----77777777--99999999--77777777-----|  2x
A----55555555--77777777--77777777-----|
E------------------------55555555-----|
................p.m....................

Pre-Chorus
G1
E--------------------------------------------|
B--------------------------------------------|
G----7/9-9/10-10/11--11/-12--12/13---13-13---|
D----x/x-x/x--x-/x--x-/x----x-/x-----x--x----|  
A----5/7-7/8--8-/9--9-/10---10/11----11-11---|
E--------------------------------------------|

E--------------------------------------|
B--------------------------------------|
G----5--7/8-8/9-9/10--10/11--11-11-11--|
D----x--x/x-x/x-x/x---x-/x---x--x--x---|  2x
A----3--5/6-6/7-7/8---8-/9---9--9--9---|
E--------------------------------------|

E----------------------------------|
B----------------------------------|
G----7777777777--------------------|
D----7777777777-----77777777--7-7--|  
A----5555555555-----77777777--7-7--|
E-------------------55555555--5-5--|

G2
E---------------------------------------|---------------------------------|
B---------------------------------------|---------------------------------|
G----7777777777-------------------------|---------------------------------|
D----7777777777-----77777777--7-7--77---|--9999999999--77777777--7-7--77--|  2x
A----5555555555-----77777777--7-7--77---|--9999999999--77777777--7-7--77--|
E-------------------55555555--5-5--55---|--7777777777--55555555--5-5--55--|

humawak ka lang sa aking kamay 
ng matuklasan ganda nitong ating buhay
iingatan ka di pababayaan
gabay moko sayong kapaligiran

Chorus

E--------------------------------------------------------|
B--------------------------------------------------------|
G----77777777--------------------------------------------|
D----77777777--77777777--99999999--77777777--55555555----|  
A----55555555--77777777--99999999--77777777--55555555----|
E--------------55555555--77777777--55555555--33333333----|
.......................p.m................................
E-------------------------------------|
B-------------------------------------|
G----77777777--99999999---------------|
D----77777777--99999999--77777777-----|  
A----55555555--77777777--77777777-----|
E------------------------55555555-----|
................p.m....................

E--------------------------------------------------------|
B--------------------------------------------------------|
G----77777777--------------------------------------------|
D----77777777--77777777--99999999--77777777--55555555----|  
A----55555555--77777777--99999999--77777777--55555555----|
E--------------55555555--77777777--55555555--33333333----|
.......................p.m................................
E-------------------------------------|      
B-------------------------------------|      
G----77777777--99999999--77777777-----|      
D----77777777--99999999--77777777-----|  
A----55555555--77777777--55555555-----|      
E-------------------------------------|
................p.m....................
kaluskos ng dahon
huni ng mga ibon
malayo sa dilim ng kahapon
hampas ng mga alon
kasiyahan sa nayon
mga batang naglalaro lang maghapon
simoy ng hangin
sari saring tanawin
paligid na iyong tatahakin
pagkat walang sawa kitang aarugahin
sa paraisong kinalalagyan natin

======================================================
gabay lyrics

maririnig sa yo 
sa pagdating mo sa mundo
ang katahimikan malayo sa gulo
sa inusenteng mga mata aking ipapakita
wala ang kaguluhan, walang pangangamba

humawak ka lang sa aking kamay 
ng matuklasan ganda nitong ating buhay
iingatan ka di pababayaan
gabay moko sayong kapaligiran

kaluskos ng dahon
huni ng mga ibon
malayo sa dilim ng kahapon
hampas ng mga alon
kasiyahan sa nayon
mga batang naglalaro lang maghapon
simoy ng hangin
sari saring tanawin
paligid na iyong tatahakin
pagkat walang sawa kitang aarugahin
sa paraisong kinalalagyan natin

pagdarama sayo
upang mahubog ng husto
ang kabutihan sa kapwa tao
at sa mura mong isipan
dapat mo ng malaman
na may dyos tau na pasalamatan

humawak ka lang sa aking kamay 
ng matuklasan ganda nitong ating buhay
iingatan ka di pababayaan
gabay moko sayong kapaligiran

kaluskos ng dahon
huni ng mga ibon
malayo sa dilim ng kahapon
hampas ng mga alon
kasiyahan sa nayon
mga batang naglalaro lang maghapon
simoy ng hangin
sari saring tanawin
paligid na iyong tatahakin
pagkat walang sawa kitang aarugahin
sa paraisong kinalalagyan natin

add me @ friendster.com - mykro85@yahoo.com     
Suggest correction
Give kudos to tab author, rate the tab!
1 2 3 4 5
comments
print report bad tab
guest
You may want to rate the tab now too:
select rating
Wanna post a correction for this tab? Suggest correction