Oops, an error
Loading. Please wait.

Hindi Mo Ba Alam Tab

version 3
version 3

Whole song

4,668 views 3 this week
no commentswrite comment
1 2 3 4 5
3 more votes to show rating
add to favorites
launch autoscroll
font size
0
reset
how to read this tab
guitar tuner
Autoscroll
slow
fast
+/-
esc
set tempo
stop
Help us to improve Ultimate-Guitar.com Take our survey!
×
Author
Difficulty
novice
Medyo tama
hehe Rundstedt to!
e |-----------------8-7-7-10-8-7--------------------7h8p7---10--------|
B |----------------8---8--------9-7-8--8-7---------------8--7---------|
G |------4h5-5-5s7------------------------9-7-------------9-----------|
D |---5-7------------------------------------10-8-7-------------------|
A |------------------------------------------------7------------------|
E |-------------------------------------------------------------------|

e |---7h8p7---10------------------------------------------------------|
B |--------8--7---------7-8-8h10-8-7-8-7-8-7-8-7----------------------|
G |---------9------5-7-9------------------------9-7-------------------|
D |------------------------------------------------10-8-7-------------|
A |------------------------------------------------------10-9-7-5-3-2-|
E |-------------------------------------------------------------------|
Suggest correction
Give kudos to tab author, rate the tab!
1 2 3 4 5
comments
print report bad tab
guest
You may want to rate the tab now too:
select rating
Wanna post a correction for this tab? Suggest correction