Oops, an error
Loading. Please wait.

Ikaw Ba Yan Chords

version 2
version 2

Whole song

3,321 views 9 this week
no commentswrite comment
1 2 3 4 5
please rate
add to favorites
launch autoscroll
font size
0
reset
transpose
0
reset
display chords
guitar tuner
Autoscroll
slow
fast
+/-
esc
set tempo
stop
Help us to improve Ultimate-Guitar.com Take our survey!
×
Author
markchordz 2,208
Title      :    Ikaw Ba Yan
Artist     :    Siakol
Chords by  :    Mark Jesson Galera
  
For any Comments and Suggestions:

Text Me:     09082360710/09156169501
Email Me:    jhenson_21@rocketmail.com
Friendster:  boybassista@yahoo.com

Tuning: Standard


Chord Used: A    x022xx     Powerchords: A    5577xx
            E    022100                  E    0799xx  
            F#m  144111                  F#m  2244xx     
            D    xx0202                  D    0577xx

Chorus:

 A                          E
Ikaw ba yan muntik na di  makilala

 F#m                             D
Marunong ka na rin pala ngayong tumawa

  A                      E
Tunay kaya itong aking nakikita

  F#m                          D
Mukhang tapos din ang iyong pagdurusa


Refrain:

  C#m                               F#m
Dati-rati pagkasama ka punong-puno ng drama
 
   C#m                            F#m
Gusto mong magpakamatay inawat lang kita 

   Bm                     E
Alam kong makakaya mo ang lahat

    Bm                  E
Kahit anong bigat,mabubuhat


Chorus:

 A                          E
Ikaw ba yan muntik na di  makilala

 F#m                             D
Marunong ka na rin pala ngayong tumawa

  A                      E
Tunay kaya itong aking nakikita

  F#m                          D
Mukhang tapos din ang iyong pagdurusa


Refrain:
 
  C#m                                 F#m
Dati-rati pagnagkwento bukang bibig mo siya

 C#m                               F#m 
Hindi mo matanggap dahil siniraan ko na

 Bm                   E
Pero nadadala rin ang tao

 Bm                   E
Kahit magpakabobo, ay matutoto 

Adlib: (Don't Steal this)

e----/-10-9-------/-10-9----------/10-9------/10-9-----------------|
b-~~~-------10----------10----7~--------10---------10--------------|
g---------------9----------9---------------9----------9-10/12~-----|
D------------------------------------------------------------------|
A------------------------------------------------------------------|
E------------------------------------------------------------------|

e--/10-9-------/10-9-----------/10-9-----/10-9-----10-12^^---------|
b--------10----------10-----7~------10---------10------------------|
g-----------9------------9-------------9----------9----------------|
D------------------------------------------------------------------|
A------------------------------------------------------------------|
E------------------------------------------------------------------|


 C#m                            F#m
Dati-rati pagbinibiro napipikon ka na 

  C#m                             F#m
Ngayon inaasar kita ngiti hanggang tenga
 
  Bm                E
Ang nawala ay hindi mapawi

  Bm                     E
Kahit kirot ay mahapdi ay mapapawi 

*Repeat Chorus

 A-E-F#m-D
Ikaw ba yan..Ikaw ba yan...Ikaw Ba Yan!!!
Ikaw ba yan....Ahhhhh...yan...

Ikaw di ko malubos na maisip Akala ko ako'y nanaginip...


*If you want to Learn How to Read Tabs Just Text me: 09082360710/09156169501
 
www.ultimate-guitar.com

'=================='
/   RoCk En RoLL   \
'------------------'

Suggest correction new What's this?
You can suggest a correction to this tab. Community and Mods will review your correction and vote to approve or reject it.
comments
We did not receive enough feedback on this tab! Please rate:
print report bad tab
1 2 3 4 5
guest
You may want to rate the tab now too:
select rating
Please do not post tabs as comments. Select "correction" instead!