Oops, an error
Loading. Please wait.

Isla Puting Bato Tab

2,489 views 1 this week
no commentswrite comment
1 2 3 4 5
please rate
add to favorites
launch autoscroll
font size
0
reset
how to read this tab
guitar tuner
Autoscroll
slow
fast
+/-
esc
set tempo
stop
Help us to improve Ultimate-Guitar.com Take our survey!
×
Author
Tabbed by: alay ponchica
Email: alay_slash@yahoo.com
Isla putting bato

Tuning: standard
Effect 4040 in australia F4 

e|------------------7-8-7------------------------------7-8-10-------|
B|---5-6-5-6/8-8-10-------10-8-6-8-6-5-6-5---5-6-8-10---------------|
G|-5---------------------------------------7------------------------|
D|------------------------------------------------------------------|
A|------------------------------------------------------------------|
E|------------------------------------------------------------------|

e|-10/12-12-13b-13b-12-10-8-7-8-7----7-8-7--------------------------|
B|--------------------------------10-------10-8-6-8-6-5-6-5---5-6---|
G|----------------------------------------------------------7-----5-|
D|------------------------------------------------------------------|
A|------------------------------------------------------------------|
E|------------------------------------------------------------------|

e|------------7-8-10-12-10-------------------10-12-15-13-12---------|
B|---5-6-8-10--------------13-13h12-10-12-13------------------------|
G|-5----------------------------------------------------------------|
D|------------------------------------------------------------------|
A|------------------------------------------------------------------|
E|------------------------------------------------------------------|

e|------------------------------------------------------------------|
B|-15-13-13h12-12-13h12-12------------------------10-12-13-15-13----|
G|-------------------------14-12-10-12-10-9-10-12-------------------|
D|------------------------------------------------------------------|
A|------------------------------------------------------------------|
E|------------------------------------------------------------------|

e|-15-13-12---------------------------------------------------------|
B|----------15-13-13h12-13------------------------------------------|
G|-------------------------14-12-10-12-10-9-10-12-10-9--------------|
D|------------------------------------------------------------------|
A|------------------------------------------------------------------|
E|------------------------------------------------------------------|

e|------------------------------------------------------------------|
B|------------------------------------------------------------------|
G|-7-9-10-12-10-9-5b(slow r)~/--------------------------------------|
D|------------------------------------------------------------------|
A|------------------------------------------------------------------|
E|------------------------------------------------------------------|







Second solo:


e|-15hb(7x)----------------------------------------------------|
B|----------13hb(3x)-----6-5-8-6-5-6-8-8/10-10-8-6-5-----------|
G|-------------------5/7---------------------------------------|
D|-------------------------------------------------------------|
A|-------------------------------------------------------------|
E|-------------------------------------------------------------|

e|--------------7-8-10-8-7-8-10-8-7----------------------------|
B|---5-6-6-8-10---------------------10-8-6-8-6-5-6-6h5---5-6-5-|
G|-5---------------------------------------------------7-------|
D|-------------------------------------------------------------|
A|-------------------------------------------------------------|
E|-------------------------------------------------------------|


e|-------------------------------------------------------------|
B|---5-5---5-5---5-5-----2-3----2h3-2---3-2/1---2-3-5-6--------|
G|-5-----5-----5-----1/2------1-------2------------------------|
D|-------------------------------------------------------------|
A|-------------------------------------------------------------|
E|-------------------------------------------------------------|

e|-------------------------------------------------------------|
B|-3-5-3-6-3-5-3-6-----10-8-10-8---6-5-6-5----5-6-8-8^r--------|
G|------------------------------------------7------------5~/---|
D|-------------------------------------------------------------|
A|-------------------------------------------------------------|
E|-------------------------------------------------------------|

yan lang enjoy!!
Suggest correction
What's this?
You can suggest a correction to this tab. Community and Mods will review your correction and vote to approve or reject it.
comments
We did not receive enough feedback on this tab! Please rate:
print report bad tab
1 2 3 4 5
guest
You may want to rate the tab now too:
select rating
Please do not post tabs as comments. Select "correction" instead!