Oops, an error
Loading. Please wait.

Itigil Na Natin Tab

version 2
version 2

Whole song

2,846 views 15 this week
no commentswrite comment
1 2 3 4 5
please rate
add to favorites
launch autoscroll
font size
0
reset
how to read this tab
guitar tuner
Autoscroll
slow
fast
+/-
esc
set tempo
stop
Help us to improve Ultimate-Guitar.com Take our survey!
×
Author
-------------------------------------------------------------------------------
                             siakol - itigil na natin
-------------------------------------------------------------------------------
Tabbed by:totim
Email:totziemoron@yahoo.com

Tuning:

intro
e|------------------------------------------|
B|----------0h2-0---------------------------|
G|------2-----------2-----0-----0-----------|
D|----2---2-------2-----0---0-----0---------|2x
A|--0-------------------------------2-------|
E|--------------------3-------3-------------|

verse Am G Am G F C G D Am 2x
e|------------------------------------------|
B|----------0h2-0---------------------------|
G|------2-----------2-----0-----0-----------|
D|----2---2-------2-----0---0-----0---------|
A|--0-------------------------------2-------|
E|--------------------3-------3-------------|

e|------------------------------------------|
B|----------0h2-0---------------------------|
G|------2-----------2-----0-----0-----------|
D|----2---2-------2-----0---0-----0---------|
A|--0-------------------------------2-------|
E|--------------------3-------3-------------|
Magpakita ng sobra
Hindi mo na makakaya

disortion !

e|--------------------------------------------------|
B|--------------------------------------------------|
G|-------5-----------7------------------------------|
D|-3-----5-4x--5-----7-8x--7------------------------|
A|-3-8x--3-----5-4x--5-----7-8x---------------------|
E|-1-----------3-----------5------------------------|
Pagkat may taong sobra ang talino
Ililigaw nila ang isapan mo

****************************************************************

chorus C G Am Em F G 2x
distortion
e|----------------------------------------------|
B|----------------------------------------------|
G|-5--------------------------------------------|
D|-5-3x--5-----7-----0-----3-----5--------------|2x
A|-3-----5-3x--7-3x--2-3x--3-8x--5-8x-----------|
E|-------3-----5-----2-----1-----3--------------|

Itigil na natin                    
Kung walang patutunguhan                 
Ayoko na ng plastikan                              
Kung meron ba tayong dapat balikan                           
Kailangan meron ding maiwan oh

****************************************************
play this after first chorus......

gtr1
e|----------------------------------------|
B|----------0h2---------------------------|
G|------2---------2-----0-----0-----------|
D|----2---2-----2-----0---0-----0---------|
A|--0-----------------------------2-------|
E|------------------3-------3-------------|

e|----------------------------------------|
B|----------0h2---------------------------|
G|------2---------2-----0-----0-----------|
D|----2---2-----2-----0---0-----0---------|
A|--0-----------------------------2-------|
E|------------------3-------3-------------|


gtr2
E|--------------------------------------------------------|
B|--------------------------------------------------------|
G|-6/8-6-6h8p6-5-5h6p5-3-3h5p3p2---3h5p3-2h3p2------------|
D|-------------------------------5-------------3----------|
A|--------------------------------------------------------|
e|--------------------------------------------------------|

e|-4/6-4-4h6p4-3-3h4p3------------------------------------|
B|---------------------6-6h8p6---5h6p5p3-6-5--------------|
G|-----------------------------7--------------------------|
D|--------------------------------------------------------|
A|--------------------------------------------------------|
E|--------------------------------------------------------|
**********************************************************************
solo

e|---------------------------------------------------------------------|
B|-----5-----------------------------------8h10-10/11--11-13p11--------|
G|-6/8---8p6--------------------10-9--9h10----------------------12-----|
D|-----------8-8-8p6---6/8-8/10----------------------------------------|
A|-------------------8-------------------------------------------------|
E|---------------------------------------------------------------------|
   F5                            C5          G5            D5
e|---------------------------------------------------------------------|
B|----------------------------------------11-11-11-11---9/11-11-11-11--|
G|-6/8-8-8-\6--6/8-8-8-\6--6-8--6-6-6-6--------------------------------|
D|---------------------------------------------------------------------|
A|---------------------------------------------------------------------|
E|---------------------------------------------------------------------|
         A5 
e|-----7-8-10--8-7--------|
B|-11---------------------|
G|------------------------|

hindi ako sigurado sa solo......

************************************

| /   slide up
| \   slide down
| h   hammer-on
| p   pull-off

************************************
Suggest correction
What's this?
You can suggest a correction to this tab. Community and Mods will review your correction and vote to approve or reject it.
comments
We did not receive enough feedback on this tab! Please rate:
print report bad tab
1 2 3 4 5
guest
You may want to rate the tab now too:
select rating
Please do not post tabs as comments. Select "correction" instead!