Oops, an error
Loading. Please wait.

Ituloy Mo Lang Tab

version 1
version 1

Whole song

60,768 views 75 this week
no commentswrite comment
1 2 3 4 5
x 4
add to favorites
launch autoscroll
font size
0
reset
how to read this tab
guitar tuner
Autoscroll
slow
fast
+/-
esc
set tempo
stop
Help us to improve Ultimate-Guitar.com Take our survey!
×
Author
Guitar Tuning: Standard

[Intro]
e|-----------------------------------|
B|----0-2-3-2-0h2---2-0-2---0--------|
G|---2-----------2-2-----2-1--2-1----| (2x)
D|--2--------------------------------|
A|-0--------------0--0-0-------------|
e|------------------------0--0-0-0---|

(Gtr.1)
(A-F#m-E-D)
e|---------------------------------------|
B|---------------------------------------|
G|-------------------99999999-77777777---|    (2x)
D|-77777777-44444444-99999999-77777777---|
A|-77777777-44444444-77777777-55555555---|
e|-55555555-22222222---------------------|

(Gtr.2)
e|-----------------------------------|
B|-----------------------------------|
G|-----------------------------------|    (2x)
D|-/7-8------/7-8------/7-8----------|
A|-----5555------7777------5~--------|
e|-----------------------------------|

[Verse 1]
(A-F#m-E-D)
e|----------22222222-----------------------------|
B|-22222222-22222222-----------------------------|
G|-22222222-22222222-99999999-77777777-----------| (2x)
D|-22222222-44444444-99999999-77777777-----------|
A|----------44444444-77777777-55555555-----------|
e|----------22222222-----------------------------|

[Refrain]
(Bm-E)
e|---------------------|
B|---------------------|
G|-44444-99999---------| (2x)
D|-44444-99999---------|
A|-22222-77777---------|
e|---------------------|

[Verse 2]
(A-F#m-E-D)
e|----------22222222-----------------------------|
B|-22222222-22222222-----------------------------|
G|-22222222-22222222-99999999-77777777-----------| (2x)
D|-22222222-44444444-99999999-77777777-----------|
A|----------44444444-77777777-55555555-----------|
e|----------22222222-----------------------------|

[Refrain]
(Bm-E)
e|---------------------|
B|---------------------|
G|-44444-99999---------| (2x)
D|-44444-99999---------|
A|-22222-77777---------|
e|---------------------|

[Chorus]
(A-F#m-E-D) 
(Gtr.2 repeat chords)
e|---------------------------------------|
B|---------------------------------------|
G|-------------------99999999-77777777---| (2x)
D|-77777777-44444444-99999999-77777777---|
A|-77777777-44444444-77777777-55555555---|
e|-55555555-22222222---------------------|

(Gtr.1)
(A-F#m-E-D)
e|---------------------------------------|
B|---------------------------------------|
G|-------------------99999999-77777777---|  
D|-77777777-44444444-99999999-77777777---|
A|-77777777-44444444-77777777-55555555---|
e|-55555555-22222222---------------------|

(Gtr.2)
e|-----------------------------------|
B|-----------------------------------|
G|-----------------------------------|  
D|-/7-8------/7-8------/7-8----------|
A|-----5555------7777------5~--------|
e|-----------------------------------|

[Verse 3]
(A-F#m-E-D)
e|----------22222222-----------------------------|
B|-22222222-22222222-----------------------------|
G|-22222222-22222222-99999999-77777777-----------| (2x)
D|-22222222-44444444-99999999-77777777-----------|
A|----------44444444-77777777-55555555-----------|
e|----------22222222-----------------------------|

[Refrain]
(Bm-E)
e|---------------------|
B|---------------------|
G|-44444-99999---------| (2x)
D|-44444-99999---------|
A|-22222-77777---------|
e|---------------------|

[Chorus]
(A-F#m-E-D) 
(Gtr.2 repeat chords)
e|---------------------------------------|
B|---------------------------------------|
G|-------------------99999999-77777777---| (2x)
D|-77777777-44444444-99999999-77777777---|
A|-77777777-44444444-77777777-55555555---|
e|-55555555-22222222---------------------|

[Adlib]
(A-F#m-E-D) (2x)
e|-------------9-10-9------------9-10-9-------------------------------|
B|-/10-10-10-12------12-10--10-12------12-----------------------------|
G|---------------------------------------9b9b9b-/9999-7777-6666-------|
D|-------------------------------------------------------------9999-7-|
A|--------------------------------------------------------------------|
e|--------------------------------------------------------------------|

e|-------------9-10-9-10/12-10-9-7-9-9/10-9-7-7/12-12b12b12b----------|
B|-/10-10-10-12-------------------------------------------------------|
G|--------------------------------------------------------------------|
D|--------------------------------------------------------------------|
A|--------------------------------------------------------------------|
e|--------------------------------------------------------------------|

e|-10/12-12-10-9------------------------------------------------------|
B|--------------12-10\9/10\9-12~--------------------------------------|
G|--------------------------------------------------------------------|
D|--------------------------------------------------------------------|
A|--------------------------------------------------------------------|
e|--------------------------------------------------------------------|

[Refrain]
(Bm-E)
e|---------------------|
B|---------------------|
G|-44444-99999---------| (2x)
D|-44444-99999---------|
A|-22222-77777---------|
e|---------------------|

[Chorus]
(A-F#m-E-D) 
(Gtr.2 repeat chords)
e|---------------------------------------|
B|---------------------------------------|
G|-------------------99999999-77777777---| (4x)
D|-77777777-44444444-99999999-77777777---|
A|-77777777-44444444-77777777-55555555---|
e|-55555555-22222222---------------------|

[Coda]
(A-F#m-E-D) (2x)
e|----------22222222----------22222222----|
B|-22222222-22222222----------33333333----|
G|-22222222-22222222-11111111-22222222----|
D|-22222222-44444444-22222222-------------|
A|----------44444444-22222222-------------|
e|----------22222222----------------------|

e|----------22222222----------2----|
B|-22222222-22222222----------3----|
G|-22222222-22222222-11111111-2----|
D|-22222222-44444444-22222222------|
A|----------44444444-22222222------|
e|----------22222222---------------|


************************************

| h  Hammer-on
| /  Slide up
| ~  Vibrato
| b  Bend
| \  Slide down

************************************
Suggest correction
comments
print report bad tab
guest
You may want to rate the tab now too:
select rating
Wanna post a correction for this tab? Suggest correction