Oops, an error
Loading. Please wait.

Kabilang Mundo Tab

version 1
version 1

Whole song

Interactive

9,224 views 18 this week
no commentswrite comment
1 2 3 4 5
3 more votes to show rating
add to favorites
launch autoscroll
font size
0
reset
how to read this tab
guitar tuner
Autoscroll
slow
fast
+/-
esc
set tempo
stop
Help us to improve Ultimate-Guitar.com Take our survey!
×
Author
Difficulty
intermediate
SONG TITLE        : KABILANG MUNDO(Alien)
ARTIST/BAND NAME  : SIAKOL

INTRO:

  (Bass...)
e|---------------------------------------------|
B|---------------------------------------------|
G|---------------------------------------------|
D|---------------------------------------------|
A|-------------------------------------------\-|
E|---------3-/---10--10--10--10--10--10--10----| \
                                              /
e|--------------------------------------|      This is Played only, for the Bass.
B|--------------------------------------|        / Play.. Hanggang sa Chorus..
G|--------------------------------------|      /
D|--------------------------------------|    /
A|--------------------------------------|  /
E|-\-3--3--3--3--3--3--3/---------------|


 Dalawang ulit muna sa Bass.. Tapos.. Guitar pasok..
  (Guitar.. With Effects..Hindi ko alam kung anong Effects)
e|---------------------------------------|
B|---------------------------------------|
G|---------------------------------------| (Ulitin nyo to hanggang
D|----7--7------7--7------------x--7-----|      Refrain.....)
A|---------------------------------------|
E|---------------------------------------|

VERSE1:
    D    G           D     G          D
    Dito.. dito lang tayo... kung saan ang mundo
                  G                  D    G
           ay hindi mo na natin kasalo...
    D    G            D    G          D
    dito.. dito lang tayo... kung saan ang gabi
                  G                  D   G
           ay nababalot pa ng misteryo....

REFRAIN:
       (Hindi ako sure sa timing nang pag-strum.. Kayo na ang bahala.)
   D                    G              Bm                A
e|-----------------------------------------------------------------------|
B|-----------------------------------------------------------------------|
G|-7---7-7-7----7--7-----------------------------------------------------|
D|-7---7-7-7----7--7---5---5-5---5-5---9---9-9-9---9-9---7---7-7-7--7--7-|
A|-5---5-5-5----5--5---5---5-5---5-5---9---9-9-9---9-9---7---7-7-7--7--7-|
E|---------------------3---3-3---3-3---7---7-7-7---7-7---5---5-5-5--5--5-|
   Sa            matahimik   lang   kita  ma   ka    ka        sa   ma....
   sa            na  ka  tagong   sandali     ng  pag ka   ka  sa   la....

CHORUS:

   D              G      Bm             A
   At di.to lang tayo sa  kabilang   mundo...
   D           G       Bm        A
   mapayapa ligtas at  may laya....

      (BACK TO INTRO....)

VERSE2:

   D    G           D     G          D
   Dito.. dito lang tayo... kung saan ang lamig
               G                    D    G
          sa ating kataway nag tatalo....
   D    G            D    G          D
   dito.. dito lang tayo... kung saan ang
                      G               D     G
          lahat ng ka22hanay may milagro.....

REPEAT:
       -- REFRAIN \
       -- CHORUS  / Kayo na bahala...

SOLO:
     (Play Chorus Chords..Play(SHIFT slide).. when making slides...)
     (With delay effects something?.. wala kasi akong Effects..{:-()
     ( Overdrive lng mayron ako..Hehehe)

e|----------------------------------------------------------------|
B|--------------------------------/7--\---------/8~~~~~~~~~~---\--|
G|----/-/-7~~~~~~~---------\--------------------------------------|
D|----------------------------------------------------------------|
A|----------------------------------------------------------------|
E|----------------------------------------------------------------|


e|-------------------------------------------------------------------|
B|-/-/8--\--/-12~~~~~-------------\----/-8-\---10~~~~~~~~~~~~~-------|
G|-------------------------------------------------------------------|
D|-------------------------------------------------------------------|
A|-------------------------------------------------------------------|
E|-------------------------------------------------------------------|


e|-----------------------------------------------------------------|
B|-----/-/-/-15~~~~-----------------\-/-/-17---\--/-20~~~~~~-------|
G|-----------------------------------------------------------------|
D|-----------------------------------------------------------------|
A|-----------------------------------------------------------------|
E|-----------------------------------------------------------------|

e|------------/-19~~~---------\-/-15---\-/-/17~~~~~~~~---------------|
B|--\-/-20--\--------------------------------------------------------|
G|-------------------------------------------------------------------|
D|-------------------------------------------------------------------|
A|-------------------------------------------------------------------|
E|-------------------------------------------------------------------|


e|------------------------------------------------------------------|
B|--/10~~~~-----\-/8~~~~-\-/7~~---\-/8~~~~~-------------------------|
G|-----------------------------------------------/7~~~~~~~----------|
D|------------------------------------------------------------------|
A|------------------------------------------------------------------|
E|------------------------------------------------------------------|


e|----------------------------------------------/10~~~~~------------|
B|--/10~~~~-----\-/8~~~~-\-/7~~---\-/8~~~~~-------------------------|
G|------------------------------------------------------------------|
D|------------------------------------------------------------------|
A|------------------------------------------------------------------|
E|------------------------------------------------------------------|


e|---/17~~-----\-/15~~--\-/14~~--\-/15~~-------\--/-/22~~-------------|
B|--------------------------------------------------------------------|
G|--------------------------------------------------------------------|
D|--------------------------------------------------------------------|
A|--------------------------------------------------------------------|
E|--------------------------------------------------------------------|

e|---19--17-17-17---15-15-15----14-14-14--|
B|----------------------------------------|
G|----------------------------------------|
D|----------------------------------------|
A|----------------------------------------|
E|----------------------------------------|


e|---------------------------------------------------------------------|
B|-17-17-17----15-15-15--15-----14--15--14--\12---12~~~~---------------|
G|---------------------------------------------------------------------|
D|---------------------------------------------------------------------|
A|---------------------------------------------------------------------|
E|---------------------------------------------------------------------|


BRIDGE:
        Bm                        G
        Gustong gusto ko ng gawin ito
        Bm                         A
        gustong gusto ko ng gawin sayo
        Bm                         G
        gustong gusto ko ng gaing ito
        Bm                           A
        gustong gusto mo rin naman ako..

REPEAT:
       REFRAIN
       CHORUS

  Then...
   PM         PM       PM    PM       PM      PM
e|---------------------------------------------------|
B|------------------------------3--3-----3--3-----3--|
G|--7---7--7--7--7--7--7--7--------------------------|
D|--7---------7--------7-----5--------5--------5-----|(Repeat 4x)
A|--5---------5--------5-----5--------5--------5-----|
E|---------------------------3--------3--------3-----|

e|----------------------------|
B|----------------------------|
G|--7~------------------------|
D|--7~------------------------|
A|--5~------------------------|
E|----------------------------|


Tablature Legend:

  h      -- hammer on
  p      -- pull off
  b      -- bend
  r      -- bend release
  ===    -- bend hold or maintain
  ^      -- bend a little
  v      -- bend more, to previous bend
  /,\    -- slide(toward, forward)
  ~      -- let ring
  x      -- dead note(muted in your fretting hand when you pluck it.)
  AH     -- Artificial Harmonic
  TP     -- Tap Harmonic
  PH     -- Pitch Harmonic
  NH     -- Natural Harmonic
  PM     -- Palm Muted
  T      -- Tap
  t      -- Use your picking hand to create pull-off's and hammer-on's
  Tr     -- Trill

  Tabbed by   : Nazo Dela Reka
      Email   : nazo_dela_reka@yahoo.com
                Calinan Davao City, Phillipines...
     School   : Samson Technical Institute... Graduate -- Comp. Tech..

                Para ito as lahat nang mga DOTA addict dyan... Sa Davao..
                Dota name ko IntiaL D ..sequel main branch... Hehehehe
                Salamat to Orley C. Church..  ORLEY@YAHOO.COM
                Nang HCDC.. Sa kanyang Lyrics.. Kinopya ko lng to lyrics mo..

                ......................ROCK N' ROLL.....................
Suggest correction
Give kudos to tab author, rate the tab!
1 2 3 4 5
comments
print report bad tab
guest
You may want to rate the tab now too:
select rating
Wanna post a correction for this tab? Suggest correction