Oops, an error
Loading. Please wait.

Your Tongue Ties tab

by Sianvar
1,683 views 1 this week
no commentswrite comment
1 2 3 4 5
x 3
add to favorites
×
Save as Personal and add changes to this tab that will be seen only by you. Learn more ›
×
You can save this tab as Personal to edit and correct it or add notes. All changes will be seen only by you. Learn more »
launch autoscroll
font size
0
reset
how to read this tab
guitar tuner
edit
Autoscroll
slow
fast
+/-
esc
set tempo
stop
Author
Difficulty
Tabbed by: Joshua Garcia (joshuag523@aol.com)

Tabs for the song: Your Tongue Ties by Sianvar
Please rate and let me know if you have any corrections. Thank you.

http://sianvar.bandcamp.com/


Tuning: Standard (E A D G B E)

Guitar 1 = Left Speaker
Guitar 2 = Right Speaker


Intro
Guitar 1:
E||--------------------------------|---------------------------9---|
B||--------------------------------|---------------------------9---|
G||--------------------------------|---------------------------9---|
D||--9-----------------------------|--9------------------------11--| x4
A||------7h9---7----------7--------|------7h9---7----------7---x---|
E||----9-----------797979----7--9--|----9-----------797979---9-9---|


Guitar 2:
E||--------------------------|
B||--------------------------|
G||--9~------------------6~--|
D||--9~------------------6~--|
A||--x-------------------x---|
E||--9~------------------5~--|



Verse
Guitar 1:
E||--------------------------------|---------------------------9---|
B||--------------------------------|---------------------------9---|
G||--------------------------------|---------------------------9---|
D||--9-----------------------------|--9------------------------11--| x3
A||------7h9---7----------7--------|------7h9---7----------7---x---|
E||----9-----------797979----7--9--|----9-----------797979---9-9---|


E||--------------------------------|--------------------------------------------|
B||--------------------------------|--------------------------------------------|
G||--------------------------------|--------------------------------------------|
D||--9-----------------------------|--9-----------------------------------------|
A||------7h9---7----------7--------|------7h9---7----------7--------------------|
E||----9-----------797979----7--9--|----9-----------797979---9-9--9--9-9--9--9--|


Guitar 2:
E||---------------------------------------------------------------------------------|
B||---------------------------------------------------------------------------------|
G||--9----9----9----9----9----9----9----9--\--6----6----6----6----6----6----6----6--|
D||--9----9----9----9----9----9----9----9--\--6----6----6----6----6----6----6----6--| x2
A||--x----x----x----x----x----x----x----x--\--x----x----x----x----x----x----x----x--|
E||--9----9----9----9----9----9----9----9--\--5----5----5----5----5----5----5----5--|



Pre-Chorus
Guitar 2:
E||-------|
B||-------|
G||--9~\--|
D||--9~\--|
A||--x-\--|
E||--9~\--|


Guitar 1:
E||--9--9999-----------------------------------------------|
B||--9--9999-------44---5---4--44444------------7-9--------|
G||--9--9999-------44---6---1--11111-------99--------------|
D||-----------x-x--66---7---2--22222--x-x--99--------------|
A||-----------x-x---------------------x-x------------------|
E||-----------x-x---------------------x-x-------------4-7--|


E||--9--9999------------------------------------9h10-------|
B||--9--9999-------44---5---4--44444-----------------12-9--|
G||--9--9999-------44---6---1--11111-------99--------------|
D||-----------x-x--66---7---2--22222--x-x--99--------------|
A||-----------x-x---------------------x-x------------------|
E||-----------x-x---------------------x-x------------------|


E||--9--9999-----------------------------------------------|
B||--9--9999-------44---5---4--44444------------7-9--------|
G||--9--9999-------44---6---1--11111-------99--------------|
D||-----------x-x--66---7---2--22222--x-x--99--------------|
A||-----------x-x---------------------x-x------------------|
E||-----------x-x---------------------x-x-------------4-7--|


E||--9--9999------------------------|
B||--9--9999-------44---5---4~-(/)--|
G||--9--9999-------44---6---1~-(/)--|
D||-----------x-x--66---7---2~-(/)--|
A||-----------x-x-------------------|
E||-----------x-x-------------------|


Guitar 2:
E||---------------------------------|
B||---------------------------------|
G||---------------------------------|
D||-------------------------2~------|
A||-------------------------2~------|
E||-------------------------0~------|



Chorus
Guitar 1:
E||--9--9999-----------------------------------------------|
B||--9--9999-------44---5---4--44444------------7-9--------|
G||--9--9999-------44---6---1--11111-------99--------------|
D||-----------x-x--66---7---2--22222--x-x--99--------------|
A||-----------x-x---------------------x-x------------------|
E||-----------x-x---------------------x-x-------------4-7--|


E||--9--9999------------------------------------9h10-------|
B||--9--9999-------44---5---4--44444-----------------12-9--|
G||--9--9999-------44---6---1--11111-------99--------------|
D||-----------x-x--66---7---2--22222--x-x--99--------------|
A||-----------x-x---------------------x-x------------------|
E||-----------x-x---------------------x-x------------------|


E||--9--9999-----------------------------------------------|
B||--9--9999-------44---5---4--44444------------7-9--------|
G||--9--9999-------44---6---1--11111-------99--------------|
D||-----------x-x--66---7---2--22222--x-x--99--------------|
A||-----------x-x---------------------x-x------------------|
E||-----------x-x---------------------x-x-------------4-7--|


E||--9--9999--------------------|
B||--9--9999-------44---5---4~--|
G||--9--9999-------44---6---1~--|
D||-----------x-x--66---7---2~--|
A||-----------x-x---------------|
E||-----------x-x---------------|


Guitar 2:
E||--9--999--------------------------------------------------|
B||--9--999--7-7-7-------------------------------------------|
G||--9--999---------9-9--8-8~-b9r8~---6h8p6---6--------------|
D||-----------------------------------------9---9-7-6~-------|
A||-----------------------------------------------------9-7--|
E||----------------------------------------------------------|
             . .    .    .                  . . . .

E||--9--999-----------------------------------------------12p11p9----------|
B||--9--999--7-7-7---------------------------9~---9h10h12---------12p10p9--|
G||--9--999---------9-9--8-8~-b9r8~---8h9h10-------------------------------|
D||------------------------------------------------------------------------|
A||------------------------------------------------------------------------|
E||------------------------------------------------------------------------|
             . .    .    .

E||--9--999--------------------------------------------------|
B||--9--999--7-7-7-------------------------------------------|
G||--9--999---------9-9--8-8~-b9r8~---6h8p6---6--------------|
D||-----------------------------------------9---9-7-6~-------|
A||-----------------------------------------------------9-7--|
E||----------------------------------------------------------|
             . .    .    .                  . . . .

E||--9--999--------------------|
B||--9--999--7-7-7-------------|
G||--9--999---------9-9--8-8~--|
D||----------------------------|
A||----------------------------|
E||----------------------------|
             . .    .    .

Verse
Guitar 1:
E||--------------------------------|---------------------------9---|
B||--------------------------------|---------------------------9---|
G||--------------------------------|---------------------------9---|
D||--9-----------------------------|--9------------------------11--| x3
A||------7h9---7----------7--------|------7h9---7----------7---x---|
E||----9-----------797979----7--9--|----9-----------797979---9-9---|


E||--------------------------------|--------------------------------------------|
B||--------------------------------|--------------------------------------------|
G||--------------------------------|--------------------------------------------|
D||--9-----------------------------|--9-----------------------------------------|
A||------7h9---7----------7--------|------7h9---7----------7--------------------|
E||----9-----------797979----7--9--|----9-----------797979---9-9--9--9-9--9--9--|


Guitar 2:
E||---------------------------------------------------------------------------------|
B||---------------------------------------------------------------------------------|
G||--9----9----9----9----9----9----9----9--\--6----6----6----6----6----6----6----6--|
D||--9----9----9----9----9----9----9----9--\--6----6----6----6----6----6----6----6--| x2
A||--x----x----x----x----x----x----x----x--\--x----x----x----x----x----x----x----x--|
E||--9----9----9----9----9----9----9----9--\--5----5----5----5----5----5----5----5--|



Chorus
Guitar 1:
E||--9--9999-----------------------------------------------|
B||--9--9999-------44---5---4--44444------------7-9--------|
G||--9--9999-------44---6---1--11111-------99--------------|
D||-----------x-x--66---7---2--22222--x-x--99--------------|
A||-----------x-x---------------------x-x------------------|
E||-----------x-x---------------------x-x-------------4-7--|


E||--9--9999------------------------------------9h10-------|
B||--9--9999-------44---5---4--44444-----------------12-9--|
G||--9--9999-------44---6---1--11111-------99--------------|
D||-----------x-x--66---7---2--22222--x-x--99--------------|
A||-----------x-x---------------------x-x------------------|
E||-----------x-x---------------------x-x------------------|


E||--9--9999-----------------------------------------------|
B||--9--9999-------44---5---4--44444------------7-9--------|
G||--9--9999-------44---6---1--11111-------99--------------|
D||-----------x-x--66---7---2--22222--x-x--99--------------|
A||-----------x-x---------------------x-x------------------|
E||-----------x-x---------------------x-x-------------4-7--|


E||--9--9999--------------------|
B||--9--9999-------44---5---4~--|
G||--9--9999-------44---6---1~--|
D||-----------x-x--66---7---2~--|
A||-----------x-x---------------|
E||-----------x-x---------------|


Guitar 2:
E||--9--999--------------------------------------------------|
B||--9--999--7-7-7-------------------------------------------|
G||--9--999---------9-9--8-8~-b9r8~---6h8p6---6--------------|
D||-----------------------------------------9---9-7-6~-------|
A||-----------------------------------------------------9-7--|
E||----------------------------------------------------------|
             . .    .    .                  . . . .

E||--9--999-----------------------------------------------12p11p9----------|
B||--9--999--7-7-7---------------------------9~---9h10h12---------12p10p9--|
G||--9--999---------9-9--8-8~-b9r8~---8h9h10-------------------------------|
D||------------------------------------------------------------------------|
A||------------------------------------------------------------------------|
E||------------------------------------------------------------------------|
             . .    .    .

E||--9--999--------------------------------------------------|
B||--9--999--7-7-7-------------------------------------------|
G||--9--999---------9-9--8-8~-b9r8~---6h8p6---6--------------|
D||-----------------------------------------9---9-7-6~-------|
A||-----------------------------------------------------9-7--|
E||----------------------------------------------------------|
             . .    .    .                  . . . .

E||--9--999----------------777777777777--|
B||--9--999--7-7-7-----------------------|
G||--9--999---------9-9--8---------------|
D||--------------------------------------|
A||--------------------------------------|
E||--------------------------------------|
             . .    .    .



Bridge
Guitar 1:
E||----------------------------------------------------------------------|
B||---------------------------------------------7p5-7--5-----7h9p7-------|
G||--4--4--4~----4--1-----------------2--2--2~------------6--------9-9~--|
D||--------------------4--2h4p2------------------------------------------|
A||-----------------------------4p2p0------------------------------------|
E||----------------------------------------------------------------------|


E||---------------------------------------------------------------------------|
B||---------------------------------------------75--7--5-----7h9p7---7h9p7----|
G||--4--4--4~----4--1-----------------2--2--2~----6-------6--------9-------9--|
D||--------------------4--2h4p2-----------------------------------------------|
A||-----------------------------4p2p0-----------------------------------------|
E||---------------------------------------------------------------------------|


E||------------------------------------------------------------------------|
B||---------------------------------------------5-7b9~--r--5-7b9~--r--5----|
G||--4--4--4~----4--1-----------------2--2--2~--------------------------6--|
D||--------------------4--2h4p2--------------------------------------------|
A||-----------------------------4p2p0--------------------------------------|
E||------------------------------------------------------------------------|


E||-------------------------------------------------------------------------|
B||---------------------------------------------75--7--5-----7h9p7---7------|
G||--4--4--4~----4--1-----------------2--2--2~----6-------6--------9---9-6--|
D||--------------------4--2h4p2---------------------------------------------|
A||-----------------------------4p2p0---------------------------------------|
E||-------------------------------------------------------------------------|


Guitar 2:
E||------------------------------------------------|
B||--5--5--5~--------------------------------------|
G||--6--6--6~----------5--5--5~---/---11--11--11~--|
D||--x--x--x-----------4--4--4~---/---10--10--10~--| x2
A||--4--4--4~----------3--3--3~---/---9---9---9~---|
E||------------------------------------------------|


E||---------------------------------------------------------------|
B||--5~------5~------5~------5~-----------------------------------|
G||--6~------6~------6~------6~------5~------5~------11~------11~-|
D||--x-------x-------x-------x-------4~------4~------10~------10~-|
A||--4~------4~------4~------4~------3~------3~------9~-------9~--|
E||---------------------------------------------------------------|


E||--------------------------------------------------------------|
B||--5~------5~------5~------5~----------------------------------|
G||--6~------6~------6~------6~------5--5--5~---/---11--11--11~--|
D||--x-------x-------x-------x-------4--4--4~---/---10--10--10~--|
A||--4~------4~------4~------4~------3--3--3~---/---9---9---9~---|
E||--------------------------------------------------------------|



Interlude
Guitar 2:
E||----------------------------------------------------------------------------------------|
B||--5~--------5~--------5~--------5~------------------------------------------------------|
G||--------6~--------6~--------6~--------6~--5~----5~--5~----5~--11~-----11~--11~-----11~--|
D||-------x---------x---------x---------x---------4---------4----------10-----------10-----|
A||------4---------4---------4---------4---------3---------3----------9------------9-------|
E||----------------------------------------------------------------------------------------|


E||----------------------------------------------------------------------------------|
B||--5~--------5~--------5~--------5~------------------------------------------------|
G||--------6~--------6~--------6~--------6~--5~----5~--5~----5~--11~-----11~--11-----|
D||-------x---------x---------x---------x---------4---------4----------10--------10--|
A||------4---------4---------4---------4---------3---------3----------9--------------|
E||----------------------------------------------------------------------------------|


Guitar 1:
E||--------------------------------------16b17r16~----------------------------------|
B||---------------------------16--16~--------------------10~------10~------10--12~--|
G||--131313131313131313131313-13--13~-----------------13~------13~------13~---------|
D||---------------------------------------------------------------------------------|
A||---------------------------------------------------------------------------------|
E||---------------------------------------------------------------------------------|
     . . . . . . . . . . . .

E||---------------------------------------------------------------------------------------|
B||--4h5h7p4-4h5h7p4-4h5h7p4-4h5h7p4-4h5h7p4-4h5h7p4-/9--9--9~--b10r9~---7--5--4~--b5r4~--|
G||---------------------------------------------------------------------------------------|
D||---------------------------------------------------------------------------------------|
A||---------------------------------------------------------------------------------------|
E||---------------------------------------------------------------------------------------|


Guitar 2:
E||----------------------------------------------------------------------------------------|
B||--5~--------5~--------5~--------5~------------------------------------------------------|
G||--------6~--------6~--------6~--------6~--5~----5~--5~----5~--11~-----11~--11~-----11~--|
D||-------x---------x---------x---------x---------4---------4----------10-----------10-----|
A||------4---------4---------4---------4---------3---------3----------9------------9-------|
E||----------------------------------------------------------------------------------------|


E||-------------------------------------------------------------------|
B||--5~--------5~--------5~--------5~---------------------------------|
G||--------6~--------6~--------6~--------6~--5~----5~--5~----5~--11~--|
D||-------x---------x---------x---------x---------4---------4---------|
A||------4---------4---------4---------4---------3---------3----------|
E||-------------------------------------------------------------------|



Dual Interlude
Guitar 1:
E||-------------16~--------------------------------------------16~----------------12/14~--|
B||--16~-------------------16~--------12~-----------16~-------------------16~-------------|
G||----------13~--------13~--------13~--------11/13~--------13~--------13~----------------|
D||---------------------------------------------------------------------------------------| x2
A||---------------------------------------------------------------------------------------|
E||---------------------------------------------------------------------------------------|


Guitar 2:
Tremelo Pick
E||-------------------------------------------------------------------7777-5555-4444--|
B||----------------------5555-7777-5555-4444---------------------4444-----------------|
G||-----------------6666------------------------------------5555----------------------|
D||------------6666------------------------------------5555---------------------------| x2
A||--4444-7777-------------------------------3333-6666--------------------------------|
E||-----------------------------------------------------------------------------------|


E||-----------------------------------------19-17-16--|--------------------------------------------|
B||--------------17-19-17-16-------------16-----------|--------------17-19-17-16-------------------|
G||-----------18----------------------17--------------|-----------18----------------------17-16b~--|
D||--------18----------------------17-----------------|--------18----------------------17----------|
A||--16-19-------------------15-18--------------------|--16-19-------------------15-18-------------|
E||---------------------------------------------------|--------------------------------------------|



Guitar 1:
E||-----------------|-----------------|
B||--7h9----7-------|-----------------|
G||-------9----9-6--|-----------------|
D||-----------------|-----------------|
A||-----------------|--6h7~--------\--|
E||-----------------|-----------------|
          .

Guitar 2:
E||-----------|------------|
B||--5--5--5--|------------|
G||--6--6--6--|--------5~--|
D||--x--x--x--|--------4~--|
A||--4--x--x--|--3333333~--|
E||-----------|------------|
                 ......



Solo
Guitar 1:
E||---------------------------7--9----------------|
B||--7h9----7-----------------------9~--9-7-------|
G||-------9----9-6~-----66-99----------------9-6--|
D||------------------99---------------------------|
A||-----------------------------------------------|
E||-----------------------------------------------|
                     .. .. ..


E||---------------------------7--9---------7------|
B||--7h9----7-----------------------9~---9---9-7--|
G||-------9----9-6~-----66-99---------------------|
D||------------------99---------------------------|
A||-----------------------------------------------|
E||-----------------------------------------------|
                     .. .. ..

E||---------------------------7--9----------------|
B||--7h9----7-----------------------9~--9-7-------|
G||-------9----9-6~-----66-99----------------9-6--|
D||------------------99---------------------------|
A||-----------------------------------------------|
E||-----------------------------------------------|
                     .. .. ..


E||---------------------------7--9----7--9-----|
B||--7h9----7-----------------------9-------9--|
G||-------9----9-6~-----66-99------------------|
D||------------------99------------------------|
A||--------------------------------------------|
E||--------------------------------------------|
                     .. .. ..



Guitar 2:
E||-----------------------------------------------------------------------------------|
B||-----------------------------------------------------------------------------------|
G||--11-11-11-11-11-11-11-11-11-11-11-11-11-11-11-11-6-6-6-6-6-6-6-6-6-6-6-6-6-6-6-6--|
D||--11-11-11-11-11-11-11-11-11-11-11-11-11-11-11-11-6-6-6-6-6-6-6-6-6-6-6-6-6-6-6-6--|
A||--9--9--9--9--9--9--9--9--9--9--9--9--9--9--9--9--4-4-4-4-4-4-4-4-4-4-4-4-4-4-4-4--|
E||-----------------------------------------------------------------------------------|



Guitar 1:
E||------------------------------------|-------------------------------\\\\\\--|
B||--7----7--7-7-----7----7--7-7-------|--7----7--7-7-----7----7--7-7--\\\\\\--|
G||--x----x--x-x-----x----x--x-x-------|--x----x--x-x-----x----x--x-x--\\\\\\--|
D||--4h6--4--4-4-----4h6--4--4-4---'5--|--4h6--4--4-4-----4h6--4--4-4----------|
A||------------------------------------|---------------------------------------|
E||------------------------------------|---------------------------------------|
                                                                       ......

E||------------------------------------|---------------\\\\\\---4~--|
B||--7----7--7-7-------7----7--7-7-----|--7----7--7-7--\\\\\\---7~--|
G||--x----x--x-x-------x----x--x-x-----|--x----x--x-x--\\\\\\-------|
D||--4h6--4--4-4---'5--4h6--4--4-4-----|--4h6--4--4-4---------------|
A||------------------------------------|----------------------------|
E||------------------------------------|----------------------------|
                                                       ......


Guitar 2:
E||-------------------------------|-------------------------------|
B||-------------------------------|-------------------------------|
G||--4--4--4-4-----4--4--4-4------|--7--7--7-7-----7--7--7-7------|
D||--4--4--4-4-----4--4--4-4---0--|--7--7--7-7-----7--7--7-7---0--|
A||--2--2--2-2-----2--2--2-2------|--5--5--5-5-----5--5--5-5------|
E||-------------------------------|-------------------------------|


E||-------------------------------|---------------------------|
B||-------------------------------|---------------------------|
G||--4--4--4-4------4--4--4-4-----|--7--7--7-7------------6~--|
D||--4--4--4-4---0--4--4--4-4-----|--7--7--7-7---0--------7~--|
A||--2--2--2-2------2--2--2-2-----|--5--5--5-5------8888888~--|
E||-------------------------------|---------------------------|
                                                    ......


Guitar 1:
E||---------------------------7--9----------------|
B||--7h9----7-----------------------9~--9-7-------|
G||-------9----9-6~-----66-99----------------9-6--|
D||------------------99---------------------------|
A||-----------------------------------------------|
E||-----------------------------------------------|
                     .. .. ..


E||---------------------------7--9---------7------|
B||--7h9----7-----------------------9~---9---9-7--|
G||-------9----9-6~-----66-99---------------------|
D||------------------99---------------------------|
A||-----------------------------------------------|
E||-----------------------------------------------|
                     .. .. ..

E||---------------------------7--9----------------|
B||--7h9----7-----------------------9~--9-7-------|
G||-------9----9-6~-----66-99----------------9-6--|
D||------------------99---------------------------|
A||-----------------------------------------------|
E||-----------------------------------------------|
                     .. .. ..


E||---------------------------7--9----7--9-----|
B||--7h9----7-----------------------9-------9--|
G||-------9----9-6~-----66-99------------------|
D||------------------99------------------------|
A||--------------------------------------------|
E||--------------------------------------------|
                     .. .. ..



Guitar 2:
E||-----------------------------------------------------------------------------------|
B||-----------------------------------------------------------------------------------|
G||--11-11-11-11-11-11-11-11-11-11-11-11-11-11-11-11-6-6-6-6-6-6-6-6-6-6-6-6-6-6-6-6--|
D||--11-11-11-11-11-11-11-11-11-11-11-11-11-11-11-11-6-6-6-6-6-6-6-6-6-6-6-6-6-6-6-6--|
A||--9--9--9--9--9--9--9--9--9--9--9--9--9--9--9--9--4-4-4-4-4-4-4-4-4-4-4-4-4-4-4-4--|
E||-----------------------------------------------------------------------------------|



Guitar 1:
E||------------------------------------|---------------\\\\\\--7----7--7-7--|
B||--7----7--7-7-------7----7--7-7-----|--7----7--7-7--\\\\\\--x----x--x-x--|
G||--x----x--x-x-------x----x--x-x-----|--x----x--x-x--\\\\\\--4h6--4--4-4--|
D||--4h6--4--4-4---'4--4h6--4--4-4-----|--4h6--4--4-4-----------------------|
A||------------------------------------|------------------------------------|
E||------------------------------------|------------------------------------|
                                                       ......

E||------------------------------------|--------------------------------|
B||--7----7--7-7-------7----7--7-7-----|--7----7--7-7-------------------|
G||--x----x--x-x-------x----x--x-x-----|--x----x--x-x-------------------|
D||--4h6--4--4-4---'4--4h6--4--4-4-----|--4h6--4--4-4---------------7~--|
A||------------------------------------|----------------8888888888888~--|
E||------------------------------------|--------------------------------|
                                                        ............


Guitar 2:
E||-------------------------------|----------------------------|
B||-------------------------------|----------------------------|
G||--4--4--4-4------4--4--4-4-----|--7--7--7-7------4--4--4-4--|
D||--4--4--4-4---0--4--4--4-4-----|--7--7--7-7---0--4--4--4-4--|
A||--2--2--2-2------2--2--2-2-----|--5--5--5-5------2--2--2-2--|
E||-------------------------------|----------------------------|


E||-------------------------------|------------------------------|
B||-------------------------------|------------------------------|
G||--4--4--4-4------4--4--4-4-----|--7--7--7-7-------------------|
D||--4--4--4-4---0--4--4--4-4-----|--7--7--7-7---------------7~--|
A||--2--2--2-2------2--2--2-2-----|--5--5--5-5---8888888888888~--|
E||-------------------------------|------------------------------|
                                                 ............



Interlude 2
Guitar 1:
E||-------------------------------------------|
B||--9~-----------------------7~----------9~--|
G||--x------------8~----------x-----------8~--|
D||--11~----------x-----------7~----------x---|
A||--9~-----------7~----------0~----------9~--|
E||---------------0~--------------------------|


E||----------------------------19~----24~---21/24~---21\24--------------|
B||--19~----17---------------------------------------------21~---21~-\--|
G||------------18-18~----18~--------------------------------------------|
D||---------------------------------------------------------------------|
A||---------------------------------------------------------------------|
E||---------------------------------------------------------------------|



Chorus
Guitar 1:
E||--9--9999-----------------------------------------------|
B||--9--9999-------44---5---4--44444------------7-9--------|
G||--9--9999-------44---6---1--11111-------99--------------|
D||-----------x-x--66---7---2--22222--x-x--99--------------|
A||-----------x-x---------------------x-x------------------|
E||-----------x-x---------------------x-x-------------4-7--|


E||--9--9999------------------------------------9h10-------|
B||--9--9999-------44---5---4--44444-----------------12-9--|
G||--9--9999-------44---6---1--11111-------99--------------|
D||-----------x-x--66---7---2--22222--x-x--99--------------|
A||-----------x-x---------------------x-x------------------|
E||-----------x-x---------------------x-x------------------|


E||--9--9999-----------------------------------------------|
B||--9--9999-------44---5---4--44444------------7-9--------|
G||--9--9999-------44---6---1--11111-------99--------------|
D||-----------x-x--66---7---2--22222--x-x--99--------------|
A||-----------x-x---------------------x-x------------------|
E||-----------x-x---------------------x-x-------------4-7--|


E||--9--9999--------------------|
B||--9--9999-------44---5---4~--|
G||--9--9999-------44---6---1~--|
D||-----------x-x--66---7---2~--| x2
A||-----------x-x---------------|
E||-----------x-x---------------|


Guitar 2:
E||--9--9999----------------------------------------------|
B||--9--9999-------44---5---------------------------------|
G||--9--9999-------44---6---8--88888-------88---8---------|
D||-----------x-x--66---7---6--66666--x-x--66---6---------| x3
A||-----------x-x-----------7--77777--x-x--77---7--7------|
E||-----------x-x-----------0--00000--x-x--00---0----9-7--|


E||--9--9999--------------------|
B||--9--9999-------44---5-------|
G||--9--9999-------44---6---8~--|
D||-----------x-x--66---7---6~--|
A||-----------x-x-----------7~--|
E||-----------x-x-----------0~--|


E||--9--9999----------------------------------------------|
B||--9--9999-------44---5---------------------------------|
G||--9--9999-------44---6---8--88888-------88---8---------|
D||-----------x-x--66---7---6--66666--x-x--66---6---------| x3
A||-----------x-x-----------7--77777--x-x--77---7--7------|
E||-----------x-x-----------0--00000--x-x--00---0----9-7--|


E||--9--9999--------------------|
B||--9--9999-------44---5-------|
G||--9--9999-------44---6---8~--|
D||-----------x-x--66---7---6~--|
A||-----------x-x-----------7~--|
E||-----------x-x-----------0~--|



Outro/Collision
Guitar 1:
E||--------------------------------|---------------------------9---|
B||--------------------------------|---------------------------9---|
G||--------------------------------|---------------------------9---|
D||--9-----------------------------|--9------------------------11--| (Fade Out)
A||------7h9---7----------7--------|------7h9---7----------7---x---|
E||----9-----------797979----7--9--|----9-----------797979---9-9---|


Guitar 2:
E||--9--9999-----------------------------------------------|
B||--9--9999-------44---5---4--44444------------7-9--------|
G||--9--9999-------44---6---1--11111-------99--------------|
D||-----------x-x--66---7---2--22222--x-x--99--------------|
A||-----------x-x---------------------x-x------------------|
E||-----------x-x---------------------x-x-------------4-7--|


E||--9--9999------------------------------------9h10-------|
B||--9--9999-------44---5---4--44444-----------------12-9--|
G||--9--9999-------44---6---1--11111-------99--------------|
D||-----------x-x--66---7---2--22222--x-x--99--------------|
A||-----------x-x---------------------x-x------------------|
E||-----------x-x---------------------x-x------------------|


E||--9--9999-----------------------------------------------|
B||--9--9999-------44---5---4--44444------------7-9--------|
G||--9--9999-------44---6---1--11111-------99--------------|
D||-----------x-x--66---7---2--22222--x-x--99--------------|
A||-----------x-x---------------------x-x------------------|
E||-----------x-x---------------------x-x-------------4-7--|


E||--9--9999--------------------|
B||--9--9999-------44---5---4~--|
G||--9--9999-------44---6---1~--|
D||-----------x-x--66---7---2~--| (Fade Out)
A||-----------x-x---------------|
E||-----------x-x---------------|


Guitar 3:
E||--9--9999----------------------------------------------|
B||--9--9999-------44---5---------------------------------|
G||--9--9999-------44---6---8--88888-------88---8---------|
D||-----------x-x--66---7---6--66666--x-x--66---6---------| x3
A||-----------x-x-----------7--77777--x-x--77---7--7------|
E||-----------x-x-----------0--00000--x-x--00---0----9-7--|


E||--9--9999--------------------|
B||--9--9999-------44---5-------|
G||--9--9999-------44---6---8~--|
D||-----------x-x--66---7---6~--| (Fade out)
A||-----------x-x-----------7~--|
E||-----------x-x-----------0~--|




Tablature Legend
----------------
 h   hammer-on
 p   pull-off
 b   bend
 pb  pre-bend
 r   release bend
 ~   hold / vibrato
 .   palm mute
 /   slide up
 \   slide down
 *   pinch harmonic
 '   natural harmonic
 x   mute note
 T   tap
Suggest correction
Creating personal tab
Creating personal tab
You can edit any tab online and save it as your Personal.

You can edit, replace or remove any tab part or add personal notes – all changes will be seen only by you.

Personal tabs can be accessed anytime from any device, even offline.
Learn more »
Give kudos to tab author, rate the tab!
1 2 3 4 5
comments
print report bad tab
guest
You may want to rate the tab now too:
select rating
Wanna post a correction for this tab? Suggest correction