Oops, an error
Loading. Please wait.

All The Same Tab

version 1
version 1

Interactive

103,103 views 12 this week
20 commentsread comments
1 2 3 4 5
x 26
add to favorites
launch autoscroll
font size
0
reset
how to read this tab
guitar tuner
Autoscroll
slow
fast
+/-
esc
set tempo
stop
Help us to improve Ultimate-Guitar.com Take our survey!
×
Author
Difficulty
intermediate
Artist: Sick Puppies
Title:  All The Same

Tabbed by Jarrad Elson

Standard tuning (EADGBe)
6/8 timing


This is a freakin' awesome song, I have no idea why nobody's done a decent
tab of it yet so here's my attempt. You'll have to listen to the song to
get the timing right, which can be a little tricky but once you're used to
it it's pretty easy.


The song starts off with just straight chords:

     C     Em    Am    F

e||--0-----0-----0-----1----|
B||--1-----0-----1-----1----|
G||--0-----0-----2-----2----|
D||--2-----2-----2-----3----|
A||--3-----2-----0-----3----|
E||--------0-----------1----|


VERSE 1:

C                                    Em

I don't mind where you come from, as long as you come to me, and

Am                            F

I don't like illusions, I can't see them clearly

C                                   Em

I don't care, no I wouldn't dare to fix the twist in you

Am                                    F

You've shown me eventually what you'll do


                       I don't mind                       I don't care

e||-----0----0---0--0-|--------------|-----0----0---0--0-|--------------|
B||--1--1----1---1--1-|--------------|--1--1----1---1--1-|--------------|
G||--2--0----0---0--0-|--------------|--2--0----0---0--0-|--------------|
D||--3--2----2---2--2-|--------------|--3--2----2---2--2-|--------------|
A||--0--3----3---3--3-|--------------|--0--3----3---3--3-|--------------|
E||--1----------------|--------------|--1----------------|--------------|

               As long as you're here

e|-----0----0---0--0-|--------------|
B|--1--1----1---1--1-|--------------|
G|--2--0----0---0--0-|--------------|
D|--3--2----2---2--2-|--------------|
A|--0--3----3---3--3-|--------------|
E|--1----------------|--------------|

CHORUS 1:

                            Go ahead and tell me you'll   leave again

                            And I'll take you for who you are

e||--0----h3--3---3-|--0----h3--3---3-|--0----h3--3---3-|--0----h3--3---3-|
B||--0-h1-----1-----|--0-h1-----1-----|--0-h1-----1-----|--0-h1-----1-----|
G||--2--------2-----|--2--------2-----|--2--------2-----|--2--------2-----|
D||--2--------------|--2--------------|--2--------------|--2--------------|
A||--0--------------|--0--------------|--0--------------|--0--------------|
E||-----------------|-----------------|-----------------|-----------------|

                            You'll just come back         running

                            If you take me for            everything

e||--0----h3--3---3-|--0----h3--3---3-|--0----h3--3---3-|--0----h3--3---3-|
B||--0-h1-----1-----|--0-h1-----1-----|--0-h1-----1-----|--0-h1-----1-----|
G||--2--------2-----|--2--------2-----|--2--------2-----|--2--------2-----|
D||--3--------------|--3--------------|--3--------------|--3--------------|
A||--0--------------|--0--------------|--0--------------|--0--------------|
E||--1--------------|--1--------------|--1--------------|--1--------------|

                                         Holding your      scarred heart in

                                         Do it all         over

e||--0----0----0----|--0----0----0----|--1----1----1----|--0----0----0----|
B||--1----1----1----|--3----3----3----|--1----1----1----|--1----1----1----|
G||--0----0----0----|--0----0----0----|--0----0----0----|--0----0----0----|
D||--2----2----2----|--2----2----2----|--2----2----2----|--2----2----2----|
A||--3----3----3----|--3----3----3----|--3----3----3----|--3----3----3----|
E||-----------------|-----------------|-----------------|-----------------|

     hand                                                  It's all the same

     again

e||--3----3----3----|--5----5----5----|--7----7----7----|--7----7----7----|
B||--0----0----0----|--0----0----0----|--0----0----0----|--0----0----0----|
G||--0----0----0----|--0----0----0----|--0----0----0----|--0----0----0----|
D||--0----0----0----|--0----0----0----|--0----0----0----|--0----0----0----|
A||--x----x----x----|--x----x----x----|--x----x----x----|--x----x----x----|
E||--3----3----3----|--3----3----3----|--3----3----3----|--3----3----3----|
                                                        |   (First time)  |

Repeat x1


        It's all the same

e||--7----------------|--0----------------|
B||--0----------------|--1----------------|
G||--0----------------|--0----------------|
D||--0----------------|--2----------------|
A||--x----------------|--3----------------|
E||--3----------------|-------------------|
  |        (Second time)                  |

VERSE 2:

C                               Em

Hours slide and days go by till you decide to come, and

Am                            F

In between it always seems too long, and sudden

C                                         Em

I have the skill, yeah I have the will to breathe you in while I can

Am                                 F

However long you stay is all that I am

                   I don't mind                I don't care

e||-----0----0-----|---------|-----0----0------|---------|
B||--1--1----1-----|---------|--1--1----1------|---------|
G||--2--0----0-----|---------|--2--0----0------|---------|
D||--3--2----2-----|---------|--3--2----2------|---------|
A||--0--3----3-----|---------|--0--3----3------|---------|
E||--1-------------|---------|--1--------------|---------|

               As long as you're here

e|-----0----0------|---------------|---------------|
B|--1--1----1------|---------------|---------------|
G|--2--0----0------|---------------|---------------|
D|--3--2----2------|---2-2-2-2-2-2-|-2-2-2-2-2-2-2-|
A|--0--3----3------|---3-3-3-3-3-3-|-3-3-3-3-3-3-3-|
E|--1--------------|---------------|---------------|


CHORUS 2:

                            Go ahead and tell me you'll       leave again

e||--0----0----0----|--0----0----0----|--0----0----0----|--0----0----0----|
B||--1----1----1----|--0----0----0----|--x----x----x----|--x----x----x----|
G||--2----2----2----|--2----2----2----|--2----2----2----|--2----2----2----|
D||--2----2----2----|--2----2----2----|--2----2----2----|--2----2----2----|
A||--0----0----0----|--0----0----0----|--0----0----0----|--0----0----0----|
E||-----------------|-----------------|-----------------|-----------------|

                            You'll just come back          running

e||--0----0----0----|--0----0----0----|--0----0----0----|--0----0----0----|
B||--1----1----1----|--1----1----1----|--1----1----1----|--1----1----1----|
G||--2----2----2----|--0----0----0----|--x----x----x----|--x----x----x----|
D||--3----3----3----|--3----3----3----|--3----3----3----|--3----3----3----|
A||--0----0----0----|--0----0----0----|--0----0----0----|--0----0----0----|
E||--1----1----1----|--1----1----1----|--1----1----1----|--1----1----1----|

                                         Holding your      scarred heart in

e||--0----0----0----|--0----0----0----|--1----1----1----|--0----0----0----|
B||--1----1----1----|--3----3----3----|--1----1----1----|--1----1----1----|
G||--0----0----0----|--0----0----0----|--0----0----0----|--0----0----0----|
D||--2----2----2----|--2----2----2----|--2----2----2----|--2----2----2----|
A||--3----3----3----|--3----3----3----|--3----3----3----|--3----3----3----|
E||-----------------|-----------------|-----------------|-----------------|

     hand                                It's all the same

e||--3----3----3----|--5----5----5----|--7----7----7----|--7----7----7----|
B||--0----0----0----|--0----0----0----|--0----0----0----|--0----0----0----|
G||--0----0----0----|--0----0----0----|--0----0----0----|--0----0----0----|
D||--0----0----0----|--0----0----0----|--0----0----0----|--0----0----0----|
A||--x----x----x----|--x----x----x----|--x----x----x----|--x----x----x----|
E||--3----3----3----|--3----3----3----|--3----3----3----|--3----3----3----|

                            And I'll     take you for      who you are

e||--8----8----8----|--7----7----7----|--5----5----5----|--5----5----5----|
B||--5----5----5----|--5----5----5----|--5----5----5----|--5----5----5----|
G||--5----5----5----|--5----5----5----|--5----5----5----|--5----5----5----|
D||--x----x----x----|--x----x----x----|--x----x----x----|--x----x----x----|
A||--7----7----7----|--7----7----7----|--7----7----7----|--7----7----7----|
E||--5----5----5----|--5----5----5----|--5----5----5----|--5----5----5----|

                            If you       take me for       everything

e||--8----8----8----|--8----8----8----|--8-----8----8---|--8-----8----8---|
B||--10---10---10---|--8----8----8----|--x-----x----x---|--x-----x----x---|
G||--10---10---10---|--10---10---10---|--10----10---10--|--10----10---10--|
D||--x----x----x----|--x----x----x----|--10----10---10--|--10----10---10--|
A||--8----8----8----|--8----8----8----|--8-----8----8---|--8-----8----8---|
E||-----------------|-----------------|-----------------|-----------------|

                                     And do it all         over

e||--0----0----0----|--0----0----0----|--1----1----1----|--0----0----0----|
B||--1----1----1----|--3----3----3----|--1----1----1----|--1----1----1----|
G||--0----0----0----|--0----0----0----|--0----0----0----|--0----0----0----|
D||--2----2----2----|--2----2----2----|--2----2----2----|--2----2----2----|
A||--3----3----3----|--3----3----3----|--3----3----3----|--3----3----3----|
E||-----------------|-----------------|-----------------|-----------------|

     again                                            It's always the

e||--3----3----3----|--5----5----5----|--7----7----7----|--7----7----7----|
B||--0----0----0----|--0----0----0----|--0----0----0----|--0----0----0----|
G||--0----0----0----|--0----0----0----|--0----0----0----|--0----0----0----|
D||--0----0----0----|--0----0----0----|--0----0----0----|--0----0----0----|
A||--x----x----x----|--x----x----x----|--x----x----x----|--x----x----x----|
E||--3----3----3----|--3----3----3----|--3----3----3----|--3----3----3----|

     same

e||--1----1----1----|--1----1----1----|--1----1----1----|--0-h1-p0--------|
B||--1----1----1----|--1----1----1----|--1----1----1----|------------3----|
G||--3----3----3----|--3----3----3----|--3----3----3----|-----------------|
D||--4----4----4----|--4----4----4----|--4----4----4----|-----------------|
A||--4----4----4----|--4----4----4----|--4----4----4----|-----------------|
E||--1----1----1----|--1----1----1----|--1----1----1----|-----------------|


SOLO:


e||--0----0----0----|--0----0----0----|--0----0----0----|--0-h1-p0--------|
B||--1----1----1----|--3----3----3----|--x----x----x----|--x---------3----|
G||--0----0----0----|--0----0----0----|--0----0----0----|--0--------------|
D||--2----2----2----|--2----2----2----|--2----2----2----|--2--------------|
A||--3----3----3----|--3----3----3----|--3----3----3----|--3--------------|
E||-----------------|-----------------|-----------------|-----------------|

e||--x----x----x----|--x----x----x----|--x----x----x----|--0-h1-p0--------|
B||--0----0----0----|--1----1----1----|--x----x----x----|--0---------3----|
G||--0----0----0----|--0----0----0----|--0----0----0----|--0--------------|
D||--0----0----0----|--0----0----0----|--0----0----0----|--0--------------|
A||--2----2----2----|--2----2----2----|--2----2----2----|--2--------------|
E||--3----3----3----|--3----3----3----|--3----3----3----|--3--------------|

e||--x----x----x----|--0----0----x----|--1----1----1----|--1----1----1----|
B||--1----1----1----|--1----1----3----|--1----1----1----|--1----1----1----|
G||--2----2----2----|--2----2----2----|--2----2----2----|--2----2----2----|
D||--3----3----3----|--3----3----3----|--3----3----3----|--3----3----3----|
A||--0----0----0----|--0----0----0----|--0----0----0----|--0----0----0----|
E||--1----1----1----|--1----1----1----|--1----1----1----|--1----1----1----|

e||-----------------|-----------------|-----------------|-----------------|
B||-----1----1----1-|-----1----1----1-|-----1----1----1-|-----1----1----1-|
G||-----0----0----0-|-----0----0----0-|-----0----0----0-|-----0----0----0-|
D||--0--2----2----2-|--0--2----2----2-|--0--2----2----2-|--0--2----2----2-|
A||--0--3----3----3-|--0--3----3----3-|--0--3----3----3-|--0--3----3----3-|
E||--1--------------|--1--------------|--1--------------|--1--------------|


BRIDGE:


    Wrong              or                right

    In                 my                life                        the

e||--0----0----0----|--0----0----0----|--0----0----0----|--0----0----0----|
B||--1----1----1----|--3----3----3----|--x----x----x----|--x----x----x----|
G||--0----0----0----|--0----0----0----|--0----0----0----|--0----0----0----|
D||--2----2----2----|--2----2----2----|--2----2----2----|--2----2----2----|
A||--3----3----3----|--3----3----3----|--3----3----3----|--3----3----3----|
E||-----------------|-----------------|-----------------|-----------------|


    Black              or                white                  If   I

    com -              pro -             mise                        I'll

e||-----------------|-----------------|-----------------|-----------------|
B||--0----0----0----|--1----1----1----|--3----3----3----|--3----3----3----|
G||--0----0----0----|--0----0----0----|--0----0----0----|--0----0----0----|
D||--0----0----0----|--0----0----0----|--0----0----0----|--0----0----0----|
A||--2----2----2----|--2----2----2----|--2----2----2----|--2----2----2----|
E||--3----3----3----|--3----3----3----|--3----3----3----|--3----3----3----|

     close             my                eyes              it's all the

     close             my                eyes              it's all the

e||--0----0----0----|--0----0----0----|--0----0----0----|--1----1----1----|
B||--0----0----0----|--1----1----1----|--3----3----3----|--1----1----1----|
G||--2----2----2----|--2----2----2----|--2----2----2----|--2----2----2----|
D||--3----3----3----|--3----3----3----|--3----3----3----|--3----3----3----|
A||--0----0----0----|--0----0----0----|--0----0----0----|--0----0----0----|
E||--1----1----1----|--1----1----1----|--1----1----1----|--1----1----1----|

     same

     same

e||-----------------|-----------------|-----------------|-----------------|
B||-----1----1----1-|-----1----1----1-|-----1----1----1-|--1----1---------|
G||-----0----0----0-|-----0----0----0-|-----0----0----0-|--0----0----0----|
D||--0--2----2----2-|--0--2----2----2-|--0--2----2----2-|--2----x----0----|
A||--0--3----3----3-|--0--3----3----3-|--0--3----3----3-|--3----2----x----|
E||--1--------------|--1--------------|--1--------------|------------3----|

CHORUS 2: (but with slightly modified words and timing)

Go ahead and say it, you're leaving
You'll just come back running
Holding you're scarred (music pauses) heart in hand (resumes)
It's all the same

And I'll take you who you are
If ya take me for everything
And do it all over again
It's all the same


OUTRO:

Play C chord and fade
Suggest correction
comments
print report bad tab
20 comments total. Showing first comments.
0 reply
timo1 196 Jan 27, 2007 03:52 AM

nice tab *hug* best tab i could find

0 reply
Calvinexp 58 Jan 30, 2007 09:29 PM

five stars

0 reply
bandnerdB2 10 Mar 13, 2007 11:50 PM

thanx so much for tabbing. i've been waiting for someone to tab this song, I've only heard it a few times and it is already one of my favorites!!
FREE HUGS!!!!!!!

guest
You may want to rate the tab now too:
select rating
Wanna post a correction for this tab? Suggest correction