Oops, an error
Loading. Please wait.

Die To Save You bass

version 1
version 1

Whole song

232 views 9 this week
no commentswrite comment
1 2 3 4 5
3 more votes to show rating
add to favorites
×
Save as Personal and add changes to this tab that will be seen only by you. Learn more ›
×
You can save this tab as Personal to edit and correct it or add notes. All changes will be seen only by you. Learn more »
launch autoscroll
font size
0
reset
guitar tuner
edit
Autoscroll
slow
fast
+/-
esc
set tempo
stop
Song: Die to save you

Artist: Sick Puppies

Tuning: Drop C (C-G-C-F)

Hay all! I made this tab because when I wanted to play this song, there weren't any good tabs for this great 
song, so I made one, and here it is! This is my first tab, and the way it's tabbed sounds good to me when I
play along to the song. The ending is different if you listen to the album version of this song, this is the 
ending that they play in the youtube version. Enjoy!

[---------------------------------------------------------------------------------------]
                           Die to save you - Sick Puppies
[---------------------------------------------------------------------------------------]


[Intro]

F|---------------------------------------------------------------------------|
C|---------------------------------------------------------------------------|
G|---------------------------------------------------------------------------|
C|-0~------------------------------------------------------------------------|

F|---------------------------------------------------------------------------|
C|---------------------------------------------------------------------------|
G|--------------------------------------------------------------0------------|
C|-0-2-3-0-2-3-2-3-5-2-3-5-8-5-10-12-8-10-7-8-7-3-7-5-3-2-0-2-3--------------|(x4)


[Verse]

F|--------------|
C|--------------|
G|---0----------|
C|-0---0---0----|(4x)


[Pre-Chorus]

F|---------------------------------------------------------------------------|
C|---------------------------------------------------------------------------|
G|--------------------------------------------------------------0------------|
C|-0-2-3-0-2-3-2-3-5-2-3-5-8-5-10-12-8-10-7-8-7-3-7-5-3-2-0-2-3--------------|(x4)


[Chorus]

F|---------------------------------------------------------------------------------------------------|
C|---------------------------------------------------------------------------------------------------|
G|-----------------5-5-5-5-5-5-5-5-------------------------------------------------------------------|
C|-5-5-5-5-5-5-5-5-----------------7-7-7-7-7-7-7-7-10-12-0-0-12-13-0-0-13-15-0-0-15-17---------------|

F|-------------------------------------------------------------------------------------------------------|
C|-------------------------------------------------------------------------------------------------------|
G|-----------------5-5-5-5-5-5-5-5-----------------------------------------------------------------------|
C|-5-5-5-5-5-5-5-5-----------------7-7-7-7-7-7-7-7-0-0-0-0-0-0-0-0--7-5-10-8-----------------------------|

(Repeat Intro, Verse, Pre-chorus and Chorus)


[Bridge]

Rest for 16 measures and then:

F|------------------------------------------------------------------------------------------|
C|------------------------------------------------------------------------------------------|
G|------------------------------------------------------------------------------------------|
C|-0-0-0-0-0-0-0-0-0-0-0-0-0-0-0-0---7-5-9~-------------------------------------------------|

(Repeat Chorus,then Outro)


[Outro]

F|---------------------------------|
C|---------------------------------|
G|---------------------------------|
C|-0-2-3-0-2-3-2-3-5-2-3-5-12------|

(Play once, second time is):

F|---------------------------------------------------------------------------|
C|---------------------------------------------------------------------------|
G|---------------------------------------------------------------------------|
C|-0-2-3-0-2-3-2-3-5-2-3-5-8-5-10-12-8-10-7-8-7-3-7-5-3-2-7-5-3-2-0-0~--------|

That was the whole song, I hope you find my tab helpful, if you find anything that you think isn't right
please let me know.



************************************

| ~  Vibrato

************************************

            
            
Suggest correction
Creating personal tab
Creating personal tab
You can edit any tab online and save it as your Personal.

You can edit, replace or remove any tab part or add personal notes – all changes will be seen only by you.

Personal tabs can be accessed anytime from any device, even offline.
Learn more »
Give kudos to tab author, rate the tab!
1 2 3 4 5
comments
print report bad tab
guest
You may want to rate the tab now too:
select rating
Wanna post a correction for this tab? Suggest correction