Oops, an error
Loading. Please wait.

Gunfight tab

7,127 views 24 this week
3 commentsread comments
1 2 3 4 5
x 14
add to favorites
×
Save as Personal and add changes to this tab that will be seen only by you. Learn more ›
×
You can save this tab as Personal to edit and correct it or add notes. All changes will be seen only by you. Learn more »
launch autoscroll
font size
0
reset
how to read this tab
guitar tuner
edit
Autoscroll
slow
fast
+/-
esc
set tempo
stop
GUNFIGHT - Sick Puppies
From 2013 Album "Connect"
Transcribed by Matt Parasch

Key:
h - hammer on
p - pull off
v - vibrato
* - palm mute
b - bend
r - bend release

Tuning: Drop C

Intro Riff:
D|------------------------------------------|----------------------------------|
A|------------------------------------------|----------------------------------|
F|------------------------------------------|----------------------------------|
C|10h12-12---12---12-10-12-10---7---7-------|3h5-5-3-5---5-3-5-3---0---0-------|
G|10h12-12---12---12-10-12-10---7---7-------|3h5-5-3-5---5-3-5-3---0---0-------|
C|10h12-12---12---12-10-12-10---7---7-------|3h5-5-3-5---5-3-5-3---0---0-------|
                                                        
D|------------------------------------------|----------------------------------|
A|------------------------------------------|----------------------------------|
F|------------------------------------------|----------------------------------|
C|10h12-12---12---12-10-12-10---7---7-------|3h5-5-3-5-------0-----------------|
G|10h12-12---12---12-10-12-10---7---7-------|3h5-5-3-5-3b----0-----------------|
C|10h12-12---12---12-10-12-10---7---7-------|3h5-5-3-5-3b----0-----------------|

Verse:
D|----------------|---------------------------|
A|----------------|---------------------------|
F|----------------|---------------------------|
C|0---0---0---0---|5---5--5-3-5-3-0---0-------|      x2
G|0---0---0---0---|5---5--5-3-5-3-0---0-------|
C|0---0---0---0---|5---5--5-3-5-3-0---0-------|
  *   *   *   *    *   *  * * * * *   *
D|------------------------------------------|----------------------------------|
A|------------------------------------------|----------------------------------|
F|------------------------------------------|----------------------------------|
C|10h12-12---12---12-10-12-10---7---7-------|3h5-5-3-5---5-3-5-3---0---0-------|
G|10h12-12---12---12-10-12-10---7---7-------|3h5-5-3-5---5-3-5-3---0---0-------|
C|10h12-12---12---12-10-12-10---7---7-------|3h5-5-3-5---5-3-5-3---0---0-------|

D|----------------|---------------------------|
A|----------------|---------------------------|
F|----------------|---------------------------|
C|0---0---0---0---|5---5--5-3-5-3-0---0-------|      x2
G|0---0---0---0---|5---5--5-3-5-3-0---0-------|
C|0---0---0---0---|5---5--5-3-5-3-0---0-------|
  *   *   *   *    *   *  * * * * *   *
Chorus:
D|------------------------------------------|----------------------------------|
A|------------------------------------------|----------------------------------|
F|------------------------------------------|----------------------------------|
C|10h12-12---12---12-10-12-10---7---7-------|3h5-5-3-5---5-3-5-3---0---0-------|
G|10h12-12---12---12-10-12-10---7---7-------|3h5-5-3-5---5-3-5-3---0---0-------|
C|10h12-12---12---12-10-12-10---7---7-------|3h5-5-3-5---5-3-5-3---0---0-------|
                                                        
D|------------------------------------------|----------------------------------|
A|------------------------------------------|----------------------------------|
F|------------------------------------------|----------------------------------|
C|10h12-12---12---12-10-12-10---7---7-------|3h5-5-3-5-------0-----------------|
G|10h12-12---12---12-10-12-10---7---7-------|3h5-5-3-5-3b----0-----------------|
C|10h12-12---12---12-10-12-10---7---7-------|3h5-5-3-5-3b----0-----------------|





Verse:
D|----------------|---------------------------|
A|----------------|---------------------------|
F|----------------|---------------------------|
C|0---0---0---0---|5---5--5-3-5-3-0---0-------|      x2
G|0---0---0---0---|5---5--5-3-5-3-0---0-------|
C|0---0---0---0---|5---5--5-3-5-3-0---0-------|
  *   *   *   *    *   *  * * * * *   *

Chorus:
D|------------------------------------------|----------------------------------|
A|------------------------------------------|----------------------------------|
F|------------------------------------------|----------------------------------|
C|10h12-12---12---12-10-12-10---7---7-------|3h5-5-3-5---5-3-5-3---0---0-------|
G|10h12-12---12---12-10-12-10---7---7-------|3h5-5-3-5---5-3-5-3---0---0-------|
C|10h12-12---12---12-10-12-10---7---7-------|3h5-5-3-5---5-3-5-3---0---0-------|


D|-8-8-8-8-8-8-8-8-8-8-8-8-8br-7-7-7-7-7-7-7-7----------------------|
A|------------------------------------------------8br br--6---------|
F|-----------------------------------------------------------7------|      x2
C|------------------------------------------------------------------|
G|------------------------------------------------------------------|
C|------------------------------------------------------------------|

Bridge:
D|--------------------------------|--------------------------------|
A|--------------------------------|--------------------------------|
F|--------------------------------|--------------------------------|
C|0---0---0---0---0---0---0---0---|3---3---3---3---8---8---8---8---|      x3
G|0---0---0---0---0---0---0---0---|3---3---3---3---8---8---8---8---|
C|0---0---0---0---0---0---0---0---|3---3---3---3---8---8---8---8---|

D|--------------------------------|------------------------------|
A|--------------------------------|------------------------------|
F|--------------------------------|------------------------------|
C|0---0---0---0---0---0---0---0---|3---3---3---3---0-------------|
G|0---0---0---0---0---0---0---0---|3---3---3---3---0-(Let ring)--|
C|0---0---0---0---0---0---0---0---|3---3---3---3---0-------------|



Verse:
D|----------------|---------------------------|
A|----------------|---------------------------|
F|----------------|---------------------------|
C|0---0---0---0---|5---5--5-3-5-3-0---0-------|      x2
G|0---0---0---0---|5---5--5-3-5-3-0---0-------|
C|0---0---0---0---|5---5--5-3-5-3-0---0-------|
  *   *   *   *    *   *  * * * * *   *


Chorus:
D|------------------------------------------|----------------------------------|
A|------------------------------------------|----------------------------------|
F|------------------------------------------|----------------------------------|
C|10h12-12---12---12-10-12-10---7---7-------|3h5-5-3-5---5-3-5-3---0---0-------|
G|10h12-12---12---12-10-12-10---7---7-------|3h5-5-3-5---5-3-5-3---0---0-------|
C|10h12-12---12---12-10-12-10---7---7-------|3h5-5-3-5---5-3-5-3---0---0-------|
                                                        
D|------------------------------------------|----------------------------------|
A|------------------------------------------|----------------------------------|
F|------------------------------------------|----------------------------------|
C|10h12-12---12---12-10-12-10---7---7-------|3h5-5-3-5-------0-----------------|
G|10h12-12---12---12-10-12-10---7---7-------|3h5-5-3-5-3b----0-----------------|
C|10h12-12---12---12-10-12-10---7---7-------|3h5-5-3-5-3b----0-----------------|

Breakdown:
D|-----------------------------------------------------------------|
A|-----------------------------------------------------------------|
F|-----------------------------------------------------------------|
C|-------3p0-3p0-------3p0-3p0--------3p0-3p0----3h5p3----3h5p3--- |    x4
G|-----------------------------------------------------------------|
C|0---0----------0---0----------0---0----------0--------0----------|

Outro Riff:
D|-8-8-8-8-8--8-8-8-8-8--8br-7-7-7-7-7--7-7-7------------------------|
A|------------------------------------------------8br-br--6----------|
F|-----------------------------------------------------------7-------|     x4
C|-------------------------------------------------------------------|
G|-------------------------------------------------------------------|
C|-------------------------------------------------------------------|
|
|
|Background guitar for the outro riff

D|---------------------------------------------|
A|---------------------------------------------|
F|---------------------------------------------|
C|---------------------------------------------|    x4
G|--3--5-5-5--5-3-5-3-0------------------------|
C|------------------------3--5-5-5--5-3-5-3-0--|

            
            
Suggest correction
Creating personal tab
Creating personal tab
You can edit any tab online and save it as your Personal.

You can edit, replace or remove any tab part or add personal notes – all changes will be seen only by you.

Personal tabs can be accessed anytime from any device, even offline.
Learn more »
comments
print report bad tab
3 comments total.
0 reply
aLEC dICKSON 350 Sep 07, 2013 06:04 PM

Great tab man! Personally I think the Breakdown sounds better like this
|-----------------| |------------------------|
|-----------------| |------------------------|
|-----------------| with |------------------------|
|-----------------| |------------------------|
|-----------------| |------------------------|
|-0--0--15p0-15p0-| |-0--15h17-15p0-15h17-15-|

Obviously they're the same notes, but it sounds thicker in the song.
Anyway, awesome tab, 5*

+1 reply
MusicMan24 1,124 Dec 04, 2013 11:02 PM

Great tab, but the only thing wrong with it is that in the palm muted part of the verse you have:

F|--5--5
C|--5--5
G|--3--3
. .


And it should be...

C|--5--5
G|--5--5
C|--5--5
. .


Other than that, 5 stars dude!

0 reply
snowy white 10 Jun 12, 2017 12:57 AM

Отличная табулатура. Играю эту песню по ней.

guest
You may want to rate the tab now too:
select rating
Wanna post a correction for this tab? Suggest correction