Oops, an error
Loading. Please wait.

Howards Tale bass

version 3
version 3

Whole song

Interactive

1,187 views 1 this week
no commentswrite comment
1 2 3 4 5
1 last vote to show rating
add to favorites
×
Save as Personal and add changes to this tab that will be seen only by you. Learn more ›
×
You can save this tab as Personal to edit and correct it or add notes. All changes will be seen only by you. Learn more »
launch autoscroll
font size
0
reset
guitar tuner
edit
Autoscroll
slow
fast
+/-
esc
set tempo
stop
I'm pretty sure this is how the song goes, so try it out
and see what you think. Like most Sick Puppies' songs,
this is in Drop C. Emma gets an egdy sound by using a pick,
but whether you use one or not is up to you.

To learn this song you must know how to:
S-Slap
P-Pop
h-Hammer on
~-Let ring
\or/-Slide up or down

Intro
F|-----------------------------------------------------|
C|--0-0-12-12-15-15---0-0-12-12-15-15---12-12-15-15----|
G|-----------------------------------------------------|
C|-----------------------------------------------------|

F|-----------------------------------------------------|
C|--0-0-11-11-12-12---0-0-11-11-12-12--11-11-12-12-----|
G|-----------------------------------------------------|
C|-----------------------------------------------------|

F|-----------------------------------------------------|
C|--0-0-7-7-8-8---0-0-7-7-8-8---7-7-8-8----------------|
G|-----------------------------------------------------|
C|-----------------------------------------------------|

F|-----------------------------------------------------|
C|--0-0-5-5-7-7--0-0-5-5-7-7-3-3-0-0-------------------|
G|-----------------------------------------------------|
C|-----------------------------------------------------|


Prechorus
F|-----------------------------------------------------|
C|-----------------------------------------------------|
G|-----------------------------------------------------|
C|--0-0----0-0------0-0---0--0-------------------------|

(This part goes fast)
F|-----------------xP----------------------------------|
C|-----------------------------------------------------|
G|-----------------------------------------------------|
C|---xS----xS-------------xS---------------------------|


Chorus
F|--------------------------------------------------------|
C|--------------------------------------------------------|
G|--------------------------------------------------------|
C|--7-7--7-7--7-7--7-7--7-7--7--0-0--0-0--0-0--0-0--0-0---|

F|-----------------------------------------------------|
C|-----------------------------------------------------|
G|-----------------------------------------------------|
C|--3-3--3-3--3-3--3-3--3-3--3--7-7--7-7--7------------|

F|-----------------------------------------|
C|-----------------------------------------|
G|-----------------------------------------|
C|-x--x--x--x---0-7-8~---------------------|


Small Riff Before Post-Chorus
F|-----------------------------------------------------|
C|--12---12-12-12-12-11h12~---12-12-12-11-11-----------|
G|--------------------------------------------12-12----|
C|-----------------------------------------------------|


Post-Chorus
F|-----------------------------------------------------|
C|-----------------------------------------------------|
G|-----------------------------------------------------|
C|--5-5---x--x-x--5-5---x--x-x--8-8--7-7--5-5----------|

F|-----------------------------------------------------|
C|-----------------------------------------------------|
G|-----------------------------------------------------|
C|--0-0-12-12-15-15---0-0-12-12-15-15---12-12-15-15----|

F|-----------------------------------------------------|
C|-----------------------------------------------------|
G|-----------------------------------------------------|
C|--0-0-11-11-12-12---0-0-11-11-12-12--11-11-12-12-----|

F|-----------------------------------------------------|
C|-----------------------------------------------------|
G|-----------------------------------------------------|
C|--0-0-7-7-8-8---0-0-7-7-8-8---7-7-8-8----------------|

F|-----------------------------------------------------|
C|-----------------------------------------------------|
G|-----------------------------------------------------|
C|--0-0-5-5-7-7--0-0-5-5-7-7-3-3-0-0-------------------|


Verse 2
F|-----------------------------------------------------|
C|--0-0-12-12-15-15---0-0-12-12-15-15---12-12-15-15----|
G|-----------------------------------------------------|
C|-----------------------------------------------------|

F|-----------------------------------------------------|
C|--0-0-11-11-12-12---0-0-11-11-12-12--11-11-12-12-----|
G|-----------------------------------------------------|
C|-----------------------------------------------------|

F|-----------------------------------------------------|
C|--0-0-7-7-8-8---0-0-7-7-8-8---7-7-8-8----------------|
G|-----------------------------------------------------|
C|-----------------------------------------------------|

F|-----------------------------------------------------|
C|--0-0-5-5-7-7--0-0-5-5-7-7-3-3-0-0-------------------|
G|-----------------------------------------------------|
C|-----------------------------------------------------|

F|-----------------------------------------------------|
C|--0-0-12-12-15-15---0-0-12-12-15-15---12-12-15-15----|
G|-----------------------------------------------------|
C|-----------------------------------------------------|

F|-----------------------------------------------------|
C|--0-0-11-11-12-12---0-0-11-11-12-12--11-11-12-12-----|
G|-----------------------------------------------------|
C|-----------------------------------------------------|

F|-----------------------------------------------------|
C|--0-0-7-7-8-8---0-0-7-7-8-8---7-7-8-8----------------|
G|-----------------------------------------------------|
C|-----------------------------------------0s--0s------|

Chorus 2
F|--------------------------------------------------------|
C|--------------------------------------------------------|
G|--------------------------------------------------------|
C|--7-7--7-7--7-7--7-7--7-7--7--0-0--0-0--0-0--0-0--0-0---|

F|-----------------------------------------------------|
C|-----------------------------------------------------|
G|-----------------------------------------------------|
C|--3-3--3-3--3-3--3-3--3-3--3--7-7--7-7--7------------|

F|-----------------------------------------|
C|-----------------------------------------|
G|-----------------------------------------|
C|-x--x--x--x---0-7-8~---------------------|


Small Riff Before Post-Chorus
F|-----------------------------------------------------|
C|--12---12-12-12-12-11h12~---12-12-12-11-11-----------|
G|--------------------------------------------12-12----|
C|-----------------------------------------------------|

Post Chorus
F|-----------------------------------------------------|
C|-----------------------------------------------------|
G|-----------------------------------------------------|
C|--5-5---x--x-x--5-5---x--x-x--8-8--7-7--5-5----------|

Bridge                                                      (x7)
F|--15-12--15-12--15-12--15-12---14-12--14-12--14-12--14-12----|
C|-------------------------------------------------------------|
G|-------------------------------------------------------------|
C|-------------------------------------------------------------|

F|--15-12--15-12--15-12--15-12-----------------------------------|
C|---------------------------------------------------------------|
G|---------------------------------------------------------------|
C|-------------------------------7s-7s-7s-7s-7s-7s-7s-7s--0s-0s--|

(Quiet for small guitar solo, then...)

Post-Guitar solo
F|---------------------------------------------------------|
C|---------------------------------------------------------|
G|---------------------------------------------------------|
C|-/7---0-0-7-7-8-8---0-0-7-7-8-8---7-7-8-8----------------|

F|-----------------------------------------------------|
C|-----------------------------------------------------|
G|-----------------------------------------------------|
C|--0-0-5-5-7-7--0-0-5-5-7-7----3~---------------------|

Post-Bridge
F|----------------------------------------------------------|
C|----------------------------------------------------------|
G|----------------------------------------------------------|
C|--0s-0s--0s-0s--0s-0s--0s-0s----0s-0s--0s-0s--0s-0s-------|

(You have to pull this off quick)
F|------------xp------------xp-----------------------------|
C|-----------------------------------7s~-------------------|
G|---------------------------------------------------------|
C|--xs--xs---------xs--xs------------------------0s-0s-----|

Verse 3
F|-----------------------------------------------------|
C|--12-12-15-15---0-0-12-12-15-15---12-12-15-15--------|
G|-----------------------------------------------------|
C|-----------------------------------------------------|

F|-----------------------------------------------------|
C|--0-0-11-11-12-12---0-0-11-11-12-12--11-11-12-12-----|
G|-----------------------------------------------------|
C|-----------------------------------------------------|

F|-----------------------------------------------------|
C|--0-0-7-7-8-8---0-0-7-7-8-8---7-7-8-8/16-------------|
G|-----------------------------------------------------|
C|-----------------------------------------------------|

Chorus 3
F|--------------------------------------------------------|
C|--------------------------------------------------------|
G|--------------------------------------------------------|
C|--7-7--7-7--7-7--7-7--7-7--7--0-0--0-0--0-0--0-0--0-0---|

F|-----------------------------------------------------|
C|-----------------------------------------------------|
G|-----------------------------------------------------|
C|--3-3--3-3--3-3--3-3--3-3--3--7-7--7-7--7------------|

F|-----------------------------------------|
C|-----------------------------------------|
G|-----------------------------------------|
C|-x--x--x--x---0-7-8~---------------------|


Small Riff Before Post-Chorus
F|-----------------------------------------------------|
C|--12---12-12-12-12-11h12~---12-12-12-11-11-----------|
G|--------------------------------------------12-12----|
C|-----------------------------------------------------|

Post Chorus
F|-----------------------------------------------------|
C|-----------------------------------------------------|
G|-----------------------------------------------------|
C|--5-5---x--x-x--5-5---x--x-x--8-8--7-7--5-5----------|

Bridge 2
F|---------------------------------------------------------------|
C|---------------------------------------------------------------|
G|---------------------------------------------------------------|
C|-8s-8s---x--x-x--8s-8s---x--x-x--0-0-0-0-0-0-0-0-0-0-0-0-0-0-0-|

F|----------------------------------------------------------------|
C|----------------------------------------------------------------|
G|----------------------------------------------------------------|
C|-5s-5s---x--x-x--5s-5s---x--x-x--7-0-0-7-0-0-7-0-0-7-0-0-8-7-8~-|

F|-----------------------------------------------------|
C|--12---12-12-12-12-11h12~---12-12-12-11-11-----------|
G|--------------------------------------------12-12----|
C|-----------------------------------------------------|

Slap Everything 'til the Outro
F|-----------------------------------------------------|
C|-----------------------------------------------------|
G|-----------------------------------------------------|
C|--5-5---x--x-x--5-5---x--x-x--8-8--7-7--5~-----------|

F|-----------------------------------------------------|
C|-----------------------------------------------------|
G|-----------------------------------------------------|
C|--0-0-12-12-15-15---0-0-12-12-15-15---12-12-15-15----|

F|-----------------------------------------------------|
C|-----------------------------------------------------|
G|-----------------------------------------------------|
C|--0-0-11-11-12-12---0-0-11-11-12-12--11-11-12-12-----|

F|-----------------------------------------------------|
C|-----------------------------------------------------|
G|-----------------------------------------------------|
C|--0-0-7-7-8-8---0-0-7-7-8-8---7-7-8-8----------------|

F|-----------------------------------------------------|
C|-----------------------------------------------------|
G|-----------------------------------------------------|
C|--0-0-5-5-7-7--0-0-5-5-7-7---3-3-3-3-3-3-0-0-0-0-0-0-|

F|-----------------------------------------------------|
C|-----------------------------------------------------|
G|-----------------------------------------------------|
C|--0-0-12-12-15-15---0-0-12-12-15-15---12-12-15-15----|

F|-----------------------------------------------------|
C|-----------------------------------------------------|
G|-----------------------------------------------------|
C|--0-0-11-11-12-12---0-0-11-12--0-0-------------------|

F|-----------------------------------------------------|
C|-----------------------------------------------------|
G|-----------------------------------------------------|
C|--7-7-8-8--------0-0-7-8-----0-0---------------------|

F|-----------------------------------------------------|
C|-----------------------------------------------------|
G|-----------------------------------------------------|
C|--5-5-7-7--------0-0-5-7-0-3~----------0-0-----------|

Outro
F|-----------------------------------------------------|
C|--0-0-12-12-15-15---0-0-12-12-15-15---12-12-15-15----|
G|-----------------------------------------------------|
C|-----------------------------------------------------|

F|-----------------------------------------------------|
C|--0-0-11-11-12-12---0-0-11-11-12-12--11-11-12-12-----|
G|-----------------------------------------------------|
C|-----------------------------------------------------|

F|-----------------------------------------------------|
C|--0-0-7-7-8-8---0-0-7-7-8-8---7-7-8-8----------------|
G|-----------------------------------------------------|
C|-----------------------------------------------------|

F|------------------------------------------------------------|
C|--0-0-5-5-7-7--0-0-5-5-7-7-3-3-0-0--------------------------|
G|------------------------------------------------------------|
C|--------------------------------------0-0--0-0--0-0--0-0----|


Hope this helps! I'll try to put more Sick Puppies songs up,
but it's a pain in the a** to tab! Enjoy and remember to rock on!
 -WarwickWerewolf

            
            
Suggest correction
Creating personal tab
Creating personal tab
You can edit any tab online and save it as your Personal.

You can edit, replace or remove any tab part or add personal notes – all changes will be seen only by you.

Personal tabs can be accessed anytime from any device, even offline.
Learn more »
Give kudos to tab author, rate the tab!
1 2 3 4 5
comments
print report bad tab
guest
Wanna post a correction for this tab? Suggest correction