Oops, an error
Loading. Please wait.

My World bass

version 1
version 1

Whole song

Interactive

9,204 views 3 this week
1 commentread comment
1 2 3 4 5
x 7
add to favorites
×
Save as Personal and add changes to this tab that will be seen only by you. Learn more ›
×
You can save this tab as Personal to edit and correct it or add notes. All changes will be seen only by you. Learn more »
launch autoscroll
font size
0
reset
guitar tuner
edit
Autoscroll
slow
fast
+/-
esc
set tempo
stop
Author
My World       -      Sick Puppies

Im not sure but i think this is right

MAIN RIFF
Gb|----------------------|-----------------|-----------------|
Db|----------------------|-----------------|-----------------|
Ab|----------------------|-----------------|-----------------|
Db|-0-00-5-05-05-5h6-5h6-|-0-00-5-05-xxxx6-|-0-00-5-0-33-2-1-|

PRE-VERSE/VERSE 2
Gb|---------------------|---------------------|-----------|
Db|---------------------|---------------------|-----------|
Ab|---------------------|---------------------|-----------|
Db|-0-xxx0-00-0-5h4-5h4-|-0-xxx0-00-0-4h3-4h3-|-0-xxx0/12-|

VERSE 1
Gb|---------------------|---------------------|--------------|
Db|---------------------|---------------------|--------------|
Ab|---------------------|---------------------|--------------|
Db|-0-xxx0-00-0-5h4-5h4-|-0-xxx0-00-0-4h3-4h3-|-0-xxx0/12-12-|

Gb|--------------------------|
Db|--------------------------|
Ab|-2-3-4-------2-3-4--------|
Db|-------3-4-5-------3-4-5--|

Gb|-----------------------------|
Db|-----------------------------|
Ab|-----------------------------|
Db|-00-00-0-0-5h4-5h4-0-xxx0/12-|

PRE-CHORUS
Gb|-----------------------------------------|
Db|-----------------------------------------|
Ab|-4-4444444-3-3333333-2-2222222-----------|
Db|-------------------------------0-0000000-|

BRIDGE
Gb|------------------------------------------------------------|
Db|------------------------------------------------------------|
Ab|---------------------------------------------4-x2-----------|
Db|-777-x7-7-777-x7-7-777-x7-7-9999-11-11-11-11------x6-x5-x30-|

Gb|--------------------------------------------------|
Db|--------------------------------------------------|
Ab|-----------------------------------4-x2-----------|
Db|-777-x7-7-777-x7-7-777-x7-7-888-x8------x6-x5-x30-|

            
            
Suggest correction
Creating personal tab
Creating personal tab
You can edit any tab online and save it as your Personal.

You can edit, replace or remove any tab part or add personal notes – all changes will be seen only by you.

Personal tabs can be accessed anytime from any device, even offline.
Learn more »
comments
print report bad tab
1 comment total.
0 reply
Njohnson90 19 Oct 11, 2015 10:07 AM

I don't know where to begin. Wrong notes, wrong rhythms, wrong phrase length, etc. Start from scratch on the next try please

guest
You may want to rate the tab now too:
select rating
Wanna post a correction for this tab? Suggest correction