Oops, an error
Loading. Please wait.

My World chords

version 1
version 1

Whole song

Interactive

154 views 3 this week
no commentswrite comment
1 2 3 4 5
2 more votes to show rating
add to favorites
×
Save as Personal and add changes to this tab that will be seen only by you. Learn more ›
×
You can save this tab as Personal to edit and correct it or add notes. All changes will be seen only by you. Learn more »
launch autoscroll
font size
0
reset
transpose
0
reset
display chords
guitar tuner
edit
Autoscroll
slow
fast
+/-
esc
set tempo
stop
Author
Difficulty
Strumming
There is no strumming pattern for this song yet. and get +5 IQ
[verse 1]
F#m           D
I'm not comin' back
              Bm
I'm not gonna react
              E
I'm not doin' shit for you.
F#m            D                      Bm              E
I'm not sittin' around while you are tearin' it down around us.
F#m             D                    Bm
I'm not livin' a lie while you swim in denial
  E                              
'Cause you're already dead and gone
F#m             D                     Bm        E           
You leave me out on the curb just like everyone else before you.

[Chorus]
F#m          D
Welcome to my world
Bm                        E                            F#m
Where everyone I ever need always ends up leaving me alone.
F#m           D
Another lesson burned
Bm
And I'm drowning in the ashes
E
Kicking
D
Screaming
D             E
Welcome to my world

[Verse 2]
F#m           D             Bm
I don't care what you think I'm not seeing a shrink.
E
I'm not doing this again.
F#m            D            Bm             E
I'm not another student or a mother to take your shit out on
F#m           D                  Bm
So let's see what you got, let's see what you're not
E
And what ever else you pretend
F#m             D             Bm   E
You've defended my intentions long enough

[Chorus]
F#m          D
Welcome to my world
Bm                        E                            F#m
Where everyone I ever need always ends up leaving me alone.
F#m           D
Another lesson burned
Bm
And I'm drowning in the ashes
E
Kicking
D
Screaming
D             E
Welcome to my world

[Bridge]
Bm             
  So here I am again.
                     D
  In the middle of the end.
Bm                     
  And the choice I wish I made
                    D
  I always make too late

[Solo]
e|-------------------------------------------------------------------------|
B|-8---10-10-10-10-10-10-10-10---6-6-6-6--8--10-10-10-10-10-10-10-10-------|
G|-------------------------------------------------------------------5-5-5-|
D|-------------------------------------------------------------------------|
A|-------------------------------------------------------------------------|
E|-------------------------------------------------------------------------|

e|---------------|
B|---------------|
G|-5-5-7-7-7-7---|
D|---------------|
A|---------------|
E|---------------|

e|------------------------------------------------------------------------|
B|-8---10-10-10-10--8---13-13-13-13--10-10-10-10--13-13-13-13---6/8---4/6-|
G|------------------------------------------------------------------------|
D|------------------------------------------------------------------------|
A|------------------------------------------------------------------------|
E|------------------------------------------------------------------------|

e|---------------------------------------|
B|-1/3--1--------------------------------|
G|--------3-3-5----3-5----8-7------------|
D|--------------------------------5------|
A|---------------------------------------|
E|---------------------------------------|

[Chorus]
F#m          D
Welcome to my world
Bm                        E                            F#m
Where everyone I ever need always ends up leaving me alone.
F#m           D
Another lesson burned
Bm
And I'm drowning in the ashes
E
Kicking
D
Screaming
D             E
Welcome to my world

[Outro]
D
My world
Bm                         E
My world (welcome to my world)
D
My world
Bm                         E
My world (welcome to my world)
D
My world
Bm
Welcome baby.

            
            
Suggest correction
Creating personal tab
Creating personal tab
You can edit any tab online and save it as your Personal.

You can edit, replace or remove any tab part or add personal notes – all changes will be seen only by you.

Personal tabs can be accessed anytime from any device, even offline.
Learn more »
Give kudos to tab author, rate the tab!
1 2 3 4 5
comments
print report bad tab
guest
You may want to rate the tab now too:
select rating
Wanna post a correction for this tab? Suggest correction