Oops, an error
Loading. Please wait.

Odd One bass

version 1
version 1

Whole song

Interactive

25,796 views 1 this week
4 commentsread comments
1 2 3 4 5
x 12
add to favorites
×
Save as Personal and add changes to this tab that will be seen only by you. Learn more ›
×
You can save this tab as Personal to edit and correct it or add notes. All changes will be seen only by you. Learn more »
launch autoscroll
font size
0
reset
guitar tuner
edit
Autoscroll
slow
fast
+/-
esc
set tempo
stop
-----------------------------------------------------------------------------
			     ODD ONE – Sick Puppies
-----------------------------------------------------------------------------
   Okay! Here is the bass tab for Odd One! I know it is 99% accurate at
least! it is a VERY fun song to play! Enjoy! and rock on! view my cover
video on YouTube www.youtube.com/chrispynintendo Thank you! 

Tabbed By: chrispynintendo 
e-mail: chrispygamefreak@yahoo.com 

Tuning: C,G,C,F
                
  Intro(Pick)
F|-11--11-XXX-11--11-11-14-14-11--11-XXX-11--11-11-14-14-13--13-XXX-13--13--|
C|-12--12-XXX-12--12-12-12-12-12--12-XXX-12--12-12-12-12-12--12-XXX-12--12--|
G|--------------------------------------------------------------------------|
C|--------------------------------------------------------------------------|

F|-XXX-13--13-XXX-13-13-13-|
C|-XXX-12--12-XXX-12-12-12-| x2
G|-------------------------|
C|-------------------------|
     
                           "Odd One you're never alone..."   
F|-11--11-XXX-11--11-14-14-11--11-XXX-11--11-14-14-13--13-XXX-13--13--|
C|-12--12-XXX-12--12-12-12-12--12-XXX-12--12-12-12-12--12-XXX-12--12--|
G|--------------------------------------------------------------------|
C|--------------------------------------------------------------------|

F|-XXX-13--13-XXX-13-13-13-|
C|-XXX-12--12-XXX-12-12-12-| x3
G|-------------------------|
C|-------------------------|

F|-11--11-XXX-11--11-14-14-11--11-XXX-11--11-14-14-13--13-XXX-13--13--|
C|-12--12-XXX-12--12-12-12-12--12-XXX-12--12-12-12-12--12-XXX-12--12--|
G|--------------------------------------------------------------------|
C|--------------------------------------------------------------------|

F|-XXX-13--13-XXX-|
C|-XXX-12--12-XXX-|
G|----------------|
C|----------------|
"...except, what I'm..."(Slapping)
F|-----------|
C|-----------|
G|-----------|
C|-555555555-|

"...feeling!"
F|--------------------------------------------------------------------------|
C|--------------------------------------------------------------------------|
G|--------------------------------------------------------------------------|
C|0--0-XXX-0--0-12--0--0-XXX-0--0-12--11-11-XXX-11-11-XXX-11-11-XXX-11-11-11|

F|-------------------------------------------------------------------|
C|-------------------------------------------------------------------|
G|-------------------------------------------------------------------|
C|0--0-XXX-0--0-12--0--0-XXX-0--0-12--11-11-XXX-11-11-XXX-555555555--|

  "...Hey..."
F|--------------------------------------------------------------|
C|--------------------------------------------------------------| x2
G|--------------------------------------------------------------|
C|-0-0-XXX-0-0-12--9-9-XXX-9-9-12—5-5-XXX-5-5-XXX-5-5-XXX-5-5-5-|
(Pick)
F|-11--11-XXX-11--11-14-14-11--11-XXX-11--11-14-14-13--13-XXX-13--13--|
C|-12--12-XXX-12--12-12-12-12--12-XXX-12--12-12-12-12--12-XXX-12--12--|
G|--------------------------------------------------------------------|
C|--------------------------------------------------------------------|

F|-XXX-13--13-XXX-13-13-13-|
C|-XXX-12--12-XXX-12-12-12-| x3
G|-------------------------|
C|-------------------------|
                            
F|---------------------------------------------------|
C|---------------------------------------------------|
G|-5-4-5-7-9-4-5-4-5-7-9-4---------------------------|
C|--------------------------444444444444555555555555-|
  "...Hey..."(Slapping)
F|--------------------------------------------------------------|
C|--------------------------------------------------------------| x2
G|--------------------------------------------------------------|
C|-0-0-XXX-0-0-12--9-9-XXX-9-9-12—5-5-XXX-5-5-XXX-5-5-XXX-5-5-5-|
                                                                         (x2)
F|--------------------------------------------------------------------------|
C|--------------------------------------------------------------------------|
G|--------------------------------------------------------------------------|
C|-400400400454400400400454400400400454-12-12-12-12-12-12-12-12-12-12-12-12-|

F|-----------------|
C|-----------------| x2(or rest second time)
G|--------0~-------|
C|-/12~--------5~--|

F|--------------|
C|--------------|
G|--------------|
C|-555555555555-|

F|--------------------------------------------------------------|
C|--------------------------------------------------------------| x2
G|--------------------------------------------------------------|
C|-0-0-XXX-0-0-12--9-9-XXX-9-9-12—5-5-XXX-5-5-XXX-5-5-XXX-5-5-5-|
"...don't let someone tell you you're no-one..."
F|---------------------------------------------------------------|
C|---------------------------------------------------------------| x2
G|---------12-10-9---------12-10-9---------12-10-9---------------|
C|-0-0-XXX---------9-9-XXX---------5-5-XXX---------5-5-XXX-5-5-5-|

F|--------------------------------------------------|
C|--------------------------------------------------|
G|--------------------------------------5-4-5-7-9-4-|
C|-400400400454400400400454400400400454-------------|


  Outro(Pick)
F|-11--11-XXX-11--11-11-14-14-11--11-XXX-11--11-11-14-14-13--13-XXX-13--13--|
C|-12--12-XXX-12--12-12-12-12-12--12-XXX-12--12-12-12-12-12--12-XXX-12--12--|
G|--------------------------------------------------------------------------|
C|--------------------------------------------------------------------------|

F|-XXX-13--13-XXX-13-13-13-|
C|-XXX-12--12-XXX-12-12-12-| 
G|-------------------------|
C|-------------------------|

F|-11--11-XXX-11--11-11-14-14-11--11-XXX-11--11-11-14-14-13--13-XXX-13--13--|
C|-12--12-XXX-12--12-12-12-12-12--12-XXX-12--12-12-12-12-12--12-XXX-12--12--|
G|--------------------------------------------------------------------------|
C|--------------------------------------------------------------------------|

F|-XXX-13--13-XXX-13-13-13-11~--|
C|-XXX-12--12-XXX-12-12-12-12~--| 
G|------------------------------|
C|------------------------------|

     
| /  slide up
| \  slide down
| h  hammer-on
| p  pull-off
| ~  vibrato
| +  harmonic
| x  Mute note
=============================================================================
Suggest correction
Creating personal tab
Creating personal tab
You can edit any tab online and save it as your Personal.

You can edit, replace or remove any tab part or add personal notes – all changes will be seen only by you.

Personal tabs can be accessed anytime from any device, even offline.
Learn more »
comments
print report bad tab
4 comments total. Showing first comments.
0 reply
Roneplaysdabass 10 Mar 23, 2010 03:43 PM

Great tab, been wanting to learn this song. It all sounds really good 5*

0 reply
chrispynintendo 72 Mar 23, 2010 04:50 PM

Thanks! I hope it helps you learn it! It should be around 100%

+1 reply
BCarey2293 131 Jul 02, 2010 07:45 AM

I would change the 9th fret notes in the chorus to 7th fret and I would change the C's on the 12th fret low C string before the bridge should be 11's.

guest
You may want to rate the tab now too:
select rating
Wanna post a correction for this tab? Suggest correction