Oops, an error
Loading. Please wait.

Odd One tab

version 2
version 2

Whole song

Interactive

10,724 views 3 this week
no commentswrite comment
1 2 3 4 5
x 4
add to favorites
×
Save as Personal and add changes to this tab that will be seen only by you. Learn more ›
×
You can save this tab as Personal to edit and correct it or add notes. All changes will be seen only by you. Learn more »
launch autoscroll
font size
0
reset
how to read this tab
guitar tuner
edit
Autoscroll
slow
fast
+/-
esc
set tempo
stop
/- slide from one note to another
x- palm mute
~- sustain note(s)

Intro (bass only)

Start with a clean sound

Verse 1:

D--------------------------------------------------------------------------|
A--------------------------------------------------------------------------|
F-9~------9~------9~------9~--9--9--9---9~--9~------9~------9~-------------|
C-7~------6~------7~------6~---6--6-7---7~--6~------7~------6~-------------|
G-5~------5~------5~------5~----5--55---5~--5~------5~------5~-555555555555|
C--------------------------------------------------------------------------|

Towards the end of this sequence, turn your distortion on, but not right
away at the start of the chain of notes. Build up to the distortion and
play straight into the pre-chorus.

Pre-chorus:
                                            (1st ending)  (2nd ending)
D-----------------------------------------|-------------|------------|
A-----------------------------------------|-------------|------------|
F-----------------------------------------|-------------|------------|
C-0-0-xxx-0/7-0-0-xxx-0/7-4-4-xxx-4-4-xxx-|4-4-xxx-4-4-4|555555555555|
G-0-0-xxx-0/7-0-0-xxx-0/7-4-4-xxx-4-4-xxx-|4-4-xxx-4-4-4|555555555555|
C-0-0-xxx-0/7-0-0-xxx-0/7-4-4-xxx-4-4-xxx-|4-4-xxx-4-4-4|555555555555|
                                                           
After 1st ending, repeat to the start of the pre-chorus and play 2nd ending
instead of the 1st. Also in the 2nd ending, palm-mute the first few strokes
(I think 6 stokes would do) and build until the end of that sequence.

Chorus:

D--------------------------------------------------------|
A--------------------------------------------------------|
F--------------------------------------------------------| 2x
C-0-0-xxx-0/12-7-7-xxx-7/12-5-5-xxx-5-5-xxx-5-5-xxx-5-5-5|
G-0-0-xxx-0/12-7-7-xxx-7/12-5-5-xxx-5-5-xxx-5-5-xxx-5-5-5|
C-0-0-xxx-0/12-7-7-xxx-7/12-5-5-xxx-5-5-xxx-5-5-xxx-5-5-5|

Change back to a clean sound.

Interlude before Verse 2:

D-----------------|
A-----------------|
F-9~------9~------|
C-7~------6~------|
G-5~------5~------|
C-----------------|

2nd Verse:
                                    (repeat once)(continue to this part)
D-----------------------------------|------------|------------------------|
A-----------------------------------|------------|------------------------|
F-9~------9~--9--9--9---9~--9~------|------------|------------------------|
C-7~------6~---6--6-7---7~--6~------|------------|444444444444555555555555|
G-5~------5~----5--55---5~--5~------|5/4/5/7/9/4/|444444444444555555555555|
C-----------------------------------|------------|444444444444555555555555|

After the 1st sequence, add distortion. When you play the second sequence,
repeat it once and then go DIRECTLY into the 3rd sequence. DO NOT go back
to the beginning of the 1st sequence. When you get to the 3rd sequence,
palm mute ALL of the 4s, and the first few 5s just like in the pre-chorus
before.

Chorus:

D--------------------------------------------------------|
A--------------------------------------------------------|
F--------------------------------------------------------| 2x
C-0-0-xxx-0/12-7-7-xxx-7/12-5-5-xxx-5-5-xxx-5-5-xxx-5-5-5|
G-0-0-xxx-0/12-7-7-xxx-7/12-5-5-xxx-5-5-xxx-5-5-xxx-5-5-5|
C-0-0-xxx-0/12-7-7-xxx-7/12-5-5-xxx-5-5-xxx-5-5-xxx-5-5-5|

Pre-bridge:

D------------------------|------------|
A------------------------|------------|
F------------------------|------------| 2x
C------------------------|------------|
G------------------------|444444444444|
C-4-0-0-4-0-0-4-0-0-4/5\4|------------|

Play the 1st sequence 3 times. The WHOLE pre-bridge is played 2 times. The
2nd time you play the pre-bridge, palm mute ALL of the 1st sequence only.
Also you may want to consider power-chord ALL of the 1st sequence on the
repeat. The power-chord is set for you to play the C-G-C strings on one
fret, so it shouldn't be too difficult. For example, to power-chord the 4th
string of C, just fret C,G,and C on the 4th fret, and that should give you
the necessary power chord.

Change back to a clean sound for the bridge

Bridge:

                               
D--------------------------(10~)|------------|
A-----10~-8~------------10~-8~--|------------|
F-9~--9~--7~---7----9~--9~--7~--|------------| 
C-7~--7~--5~----5~--7~--7~--5~--|555555555555|
G-5~--7~--5~--5-----5~--7~--5~--|------555555|
C-------------------------------|------------|

The note in parenthesis is an optional note that you can play. I listened
to the song repeatedly and I'm pretty sure I heard this note, but I know it
may be challenging for some to stretch their hands out that much.Add
distortion for the 2nd sequence going into the chorus again.

Chorus:

D--------------------------------------------------------|
A--------------------------------------------------------|
F--------------------------------------------------------| 2x
C-0-0-xxx-0/12-7-7-xxx-7/12-5-5-xxx-5-5-xxx-5-5-xxx-5-5-5|
G-0-0-xxx-0/12-7-7-xxx-7/12-5-5-xxx-5-5-xxx-5-5-xxx-5-5-5|
C-0-0-xxx-0/12-7-7-xxx-7/12-5-5-xxx-5-5-xxx-5-5-xxx-5-5-5|

"Don't let someone tell you you're no one." phrase.

D-----------------------------------------------------------------------|
A-----------------------------------------------------------------------|
F-----------14-12-11-9-9-----14-12-11-7-7-----14-12-11-7-7-----12-12-xxx| 2x
C-12-12-xxx-12-10-9--7-7-xxx-12-10-9--5-5-xxx-12-10-9--5-5-xxx-12-12-xxx|
G-12-12-xxx-12-10-9--7-7-xxx-12-10-9--5-5-xxx-12-10-9--5-5-xxx-10-10-xxx|
C-12-12-xxx--------------xxx--------------xxx--------------xxx-------xxx|

Pre-bridge with a different 2nd sequence

D------------------------|------------|
A------------------------|------------|
F------------------------|7/6/7/9/11/6|
C------------------------|------------|
G------------------------|------------|
C-4-0-0-4-0-0-4-0-0-4/5\4|------------|

Play this the same as the Pre-bridge before, only end with the new ending.
Simple enough.

Interlude/Outro

D-----------------|--------|
A-----------------|--------|
F-9~------9~------|9~------|
C-7~------6~------|7~------|
G-5~------5~------|5~------|
C-----------------|--------|

Play 1st sequence 2 times and end with the 2nd sequence.
Suggest correction
Creating personal tab
Creating personal tab
You can edit any tab online and save it as your Personal.

You can edit, replace or remove any tab part or add personal notes – all changes will be seen only by you.

Personal tabs can be accessed anytime from any device, even offline.
Learn more »
comments
print report bad tab
guest
Wanna post a correction for this tab? Suggest correction