Oops, an error
Loading. Please wait.

Riptide tab

version 1
version 1

Whole song

Interactive

50,690 views 51 this week
3 commentsread comments
1 2 3 4 5
x 18
add to favorites
×
Save as Personal and add changes to this tab that will be seen only by you. Learn more ›
×
You can save this tab as Personal to edit and correct it or add notes. All changes will be seen only by you. Learn more »
launch autoscroll
font size
0
reset
how to read this tab
guitar tuner
edit
Autoscroll
slow
fast
+/-
esc
set tempo
stop
-------------------------------------------------------------------------------
                           Riptide - Sick Puppies
-------------------------------------------------------------------------------
Tabbed by: Travi B
Email: tboogar1989@aol.com

Tuning:CGCFAD

Timing and strum patterns are up to you

The Bass plays through once first and then the guitar comes in
D|---------------------------------------------------------------------|
A|---------------------------------------------------------------------|
F|----------------------------7-7--7-7----------+5-----+5--------------|
C|-9-9--9-9--7-7--7-7---------7-7--7-7--5-5--5-5---7-7-----------------|
G|-9-9--9-9--7-7--7-7-7h9p7p0-5-5--5-5--5-5--5-5---7-7-----------------|
C|-9-9--9-9--7-7--7-7-------------------5-5--5-5---7-7-----------------|

D|---------------------------------------------------------------------|
A|---------------------------------------------------------------------|
F|----------------------------7-7--7-7----------+7-----+7--------------|
C|-9-9--9-9--7-7--7-7---------7-7--7-7--5-5--5-5---7-7-----------------|
G|-9-9--9-9--7-7--7-7-7h9p7p0-5-5--5-5--5-5--5-5---7-7-----------------|
C|-9-9--9-9--7-7--7-7-------------------5-5--5-5---7-7-----------------|

D|---------------------------------------------------------------------|
A|---------------------------------------------------------------------|
F|----------------------------7-7--7-7---------------------------------|
C|-9-9--9-9--7-7--7-7---------7-7--7-7--5-5--5-5---7-7-----------------|
G|-9-9--9-9--7-7--7-7-7h9p7p0-5-5--5-5--5-5--5-5---7-7-----------------|
C|-9-9--9-9--7-7--7-7-------------------5-5--5-5---7-7-----------------|

D|---------------------------------------------------------------------|
A|---------------------------------------------------------------------|
F|---------------------------------------------------------------------|
C|-0----7----5--5-5-5-5-5-5-9-9-9-9-9-9-7-7-7-7-7-7--------------------|
G|-0----7----5--5-5-5-5-5-5-9-9-9-9-9-9-7-7-7-7-7-7--------------------|
C|-0----7----5--5-5-5-5-5-5-9-9-9-9-9-9-7-7-7-7-7-7--------------------|
              . . . . . . . . . . . . . . . . . .

D|---------------------------------------------------------------------|
A|---------------------------------------------------------------------|
F|---------------------------------------------------------------------|
C|-0----7----5--5------5--5------9--9------7---7---7---0---------------|
G|-0----7----5--5------5--5------9--9------7---7---7---0---------------|
C|-0----7----5--5-5555-5--5-5555-9--9-9999-7-0-7-0-7-0-0---------------|
                                             .   .   .

D|---------------------------------------------------------------------|
A|---------------------------------------------------------------------|
F|----------------------------7-7--7-7----------+7-----+7--------------|
C|-9-9--9-9--7-7--7-7---------7-7--7-7--5-5--5-5---7-7-----------------|
G|-9-9--9-9--7-7--7-7-7h9p7p0-5-5--5-5--5-5--5-5---7-7-----------------|
C|-9-9--9-9--7-7--7-7-------------------5-5--5-5---7-7-----------------|

D|---------------------------------------------------------------------|
A|---------------------------------------------------------------------|
F|---------------------7-7--7-7----------------------------------------|
C|-9-9--9-9--7-7--7-7--7-7--7-7--5-5--5-5--7-7-------------------------|
G|-9-9--9-9--7-7--7-7--5-5--5-5--5-5--5-5--7-7-------------------------|
C|-9-9--9-9--7-7--7-7------------5-5--5-5--7-7-------------------------|

D|---------------------------------------------------------------------|
A|---------------------------------------------------------------------|
F|---------------------------------------------------------------------|
C|-0----7----5--5-5-5-5-5-5-9-9-9-9-9-9-7-7-7-7-7-7--------------------|
G|-0----7----5--5-5-5-5-5-5-9-9-9-9-9-9-7-7-7-7-7-7--------------------|
C|-0----7----5--5-5-5-5-5-5-9-9-9-9-9-9-7-7-7-7-7-7--------------------|
                . . . . . . . . . . . . . . . . . .

D|---------------------------------------------------------------------|
A|---------------------------------------------------------14----14----|
F|---------------------------------------------------------17b18-18b17-|
C|-0----7----5--5------5--5------9--9------7---7---7---0---------------|
G|-0----7----5--5------5--5------9--9------7---7---7---0---------------|
C|-0----7----5--5-5555-5--5-5555-9--9-9999-7-0-7-0-7-0-0---------------|
                                             .   .   .

last note is held through a bass riff and then the bend

D|---------------------------------------------------------------------|
A|---------------------------------------------------------------------|
F|---------------------------------------------------------------------|
C|---------------------------------------------------------------------|
G|-----5---3---2-----------5---3---2-----------------------------------|
C|-0-0---0---0---0-5-5-0-0---0---0---0-3h5p3---------------------------|

D|---------------------------------------------------------------------|
A|---------------------------------------------------------------------|
F|---------------------------------------------------------------------|
C|---------------------------------------------------------------------|
G|-----5---3---2-----------5---3---2-----------------------------------|
C|-0-0---0---0---0-5-5-0-0---0---0-------------------------------------|

D|---------------------------------------------------------------------|
A|---------------------------------------------------------------------|
F|---------------------------------------------------------------------|
C|-0----7----5--5-5-5-5-5-5-9-9-9-9-9-9-7-7-7-7-7-7--------------------|
G|-0----7----5--5-5-5-5-5-5-9-9-9-9-9-9-7-7-7-7-7-7--------------------|
C|-0----7----5--5-5-5-5-5-5-9-9-9-9-9-9-7-7-7-7-7-7--------------------|
                . . . . . . . . . . . . . . . . . . 

D|---------------------------------------------------------------------|
A|--------------------------------------------------------t14----------|
F|---------------------------------------------------------------------|
C|-0----7----5--5------5--5------9--9------7---7---7---0---------------|
G|-0----7----5--5------5--5------9--9------7---7---7---0---------------|
C|-0----7----5--5-5555-5--5-5555-9--9-9999-7-0-7-0-7-0-0---------------|
                                             .   .   .

After the last note there's a tremolo effect and another bass riff

D|---------------------------------------------------------------------|
A|---------------------------------------------------------------------|
F|---------------------------------------------------------------------|
C|---------------------------------------------------------------------|
G|-----5---3---2-----------5---3---2-----------------------------------|
C|-0-0---0---0---0-5-5-0-0---0---0---0-3h5p3---------------------------|

D|---------------------------------------------------------------------|
A|---------------------------------------------------------------------|
F|---------------------------------------------------------------------|
C|-------------------------------------3-5-3-0-------------------------|
G|-----5---3---2-----------5---3---2---3-5-3-0-------------------------|
C|-0-0---0---0---0-5-5-0-0---0---0---0-3-5-3-0-------------------------|


That's it! That should be just about 100% correct.



************************************

| /  slide up
| \  slide down
| h  hammer-on
| p  pull-off
| ~  vibrato
| +  harmonic
| x  Mute note
| t  tremolo
| .  palm mute

************************************

            
            
Suggest correction
Creating personal tab
Creating personal tab
You can edit any tab online and save it as your Personal.

You can edit, replace or remove any tab part or add personal notes – all changes will be seen only by you.

Personal tabs can be accessed anytime from any device, even offline.
Learn more »
comments
print report bad tab
3 comments total.
-1 reply
yanksandjetsfan 135 Aug 07, 2011 07:18 PM

Excellent tab! i just figured it by ear and got on here to check and this is 100% the same as what i heard. i dont understand why the other guy's tab has a better rating... he has many mistakes and yours is flawless. 5 stars!

0 reply
TheIronDruid 10 Jun 26, 2014 10:10 AM

Excellent, but the bass doesn't play through first as far as i can tell

0 reply
PTAWS6 590 Aug 05, 2014 06:39 PM

in the original it did, but the video version and the deluxe cd version cut it out.

guest
Wanna post a correction for this tab? Suggest correction