Oops, an error
Loading. Please wait.

Riptide Tab

version 2
version 2

Whole song

Interactive

34,232 views 1 this week
7 commentsread comments
1 2 3 4 5
x 14
add to favorites
launch autoscroll
font size
0
reset
how to read this tab
guitar tuner
Autoscroll
slow
fast
+/-
esc
set tempo
stop
Help us to improve Ultimate-Guitar.com Take our survey!
×
Author
Tuning
C G C F A D
Sick Puppies - Riptide

Tabbed By:derickson690

This is my first tab so please comment and rate.

In Drop C Tuning - CGCFAD

X-Mute Note
pm-Palm Mute
~-Strum Note as in the song/as is comfortable
E-Eight Note
T-Half Note Triplet
H-Half Note
W-Whole Note
2W-Two Whole Notes tied togeter
()-Rest for the amount of time specified in the ()
[]-Notes tied over from previous measure

D----|----|----|----|----|----|----|
A----|----|----|----|----|----|----|
F----|----|----|----|----|----|----|
C----|----|----|----|----|----|----| (Eight Measure Rest)
G----|----|----|----|----|----|----| (Bass and Drum Only)
C----|----|----|----|----|----|----|

  E E(H.) E E(H.) E E(H.) E E(Q)E E E E
D--------|-------|-------|--------------|
A--------|-------|-------|--------------|
F--------|-------|-------|--------------|
C-9-9----|9-9----|7-7----|7-7-----------|
G-9-9----|9-9----|7-7----|7-7---7-9-7---|
C-9-9----|9-9----|7-7----|7-7---------9-|

  E E(H.) E E(H.) E E(H.) E  E Q  E  E Q
D--------|-------|-------|----------------|
A--------|-------|-------|----------------|
F-7-7----|7-7----|-------|----------------|
C-5-5----|5-5----|5-5----|-----5*------5*-|
G-5-5----|5-5----|5-5----|5--5----5--5----|
C--------|-------|5-5----|5--5----5--5----|
                          pm pm   pm pm
  E E(H.) E E(H.) E E(H.) E E(Q)E E E E
D--------|-------|-------|--------------|
A--------|-------|-------|--------------|
F--------|-------|-------|--------------|
C-9-9----|9-9----|7-7----|7-7-----------|
G-9-9----|9-9----|7-7----|7-7---7-9-7---|
C-9-9----|9-9----|7-7----|7-7---------9-|

  E E(H.) E E(H.) E E(H.) E  E Q  E E  Q
D--------|-------|-------|----------------|
A--------|-------|-------|----------------|
F-7-7----|7-7----|-------|----------------|
C-5-5----|5-5----|5-5----|-----5*------5*-|
G-5-5----|5-5----|5-5----|5--5----5--5----|
C--------|-------|5-5----|5--5----5--5----|
                          pm pm   pm pm
  E E(H.) E E(H.) E E(H.) E E(Q)E E E E
D--------|-------|-------|--------------|
A--------|-------|-------|--------------|
F--------|-------|-------|--------------|
C-9-9----|9-9----|7-7----|7-7-----------|
G-9-9----|9-9----|7-7----|7-7---7-9-7---|
C-9-9----|9-9----|7-7----|7-7---------9-|

  E E(H.) E E(H.) E E(H.) E E(Q)E E(Q)
D--------|-------|-------|------------|
A--------|-------|-------|------------|
F-7-7----|7-7----|-------|------------|
C-5-5----|5-5----|5-5----|5-5---7-7---|
G-5-5----|5-5----|5-5----|5-5---7-7---|
C--------|-------|5-5----|5-5---7-7---|

 2W~~~~~~~~~~~~ 2W~~~~~~~~~~~~~~~~~
D-------|------|------|------------|
A-------|------|------|------------|
F-7-----|------|-9----|------------|
C-5-----|------|-7----|------------|
G-5-----|------|-7----|------------|
C-------|------|-7----|------------|

  W~~~~~  T  T  T  T  T  T   T  T  T  T  T  T   T  T  T  T  T  T
D-------|------------------|------------------|------------------|
A-------|------------------|------------------|------------------|
F-7-----|------------------|------------------|------------------|
C-5-----|-5--5--5--5--5--5-|-9--9--9--9--9--9-|-7--7--7--7--7--7-|
G-5-----|-5--5--5--5--5--5-|-9--9--9--9--9--9-|-7--7--7--7--7--7-|
C-5-----|-5--5--5--5--5--5-|-9--9--9--9--9--9-|-7--7--7--7--7--7-|
          pm pm pm pm pm pm  pm pm pm pm pm pm  pm pm pm pm pm pm
 2W~~~~~~~~~~~~ 2W~~~~~~~~~~~~~~~~~
D-------|------|------|------------|
A-------|------|------|------------|
F-7-----|------|-9----|------------|
C-5-----|------|-7----|------------|
G-5-----|------|-7----|------------|
C-------|------|-7----|------------|

  Q Q E E E E   Q Q E E E E   Q Q E E E E   E E E E E E E E
D-------------|-------------|-2-2-X-X-X-X-|-----------------|
A-------------|-------------|-3-3-X-X-X-X-|-----------------|
F-7-7-X-X-X-X-|-7-7-X-X-X-X-|-4-4-X-X-X-X-|-9-X-X-9-X-X-9-X-|
C-5-5-X-X-X-X-|-5-5-X-X-X-X-|-4-4-X-X-X-X-|-7-X-X-7-X-X-7-X-|
G-5-5-X-X-X-X-|-5-5-X-X-X-X-|-2-2-X-X-X-X-|-7-X-X-7-X-X-7-X-|
C-5-5-X-X-X-X-|-5-5-X-X-X-X-|-----X-X-X-X-|-7-X-X-7-X-X-7-X-|

 2W
D-------------|-------------|
A-------------|-------------|
F-7-----------|-------------|
C-5-----------|-------------|
G-5-----------|-------------|
C-------------|-------------|

  E E(H.) E E(H.) E E(H.) E E(Q)E E E E
D--------|-------|-------|--------------|
A--------|-------|-------|--------------|
F--------|-------|-------|--------------|
C-9-9----|9-9----|7-7----|7-7-----------|
G-9-9----|9-9----|7-7----|7-7---7-9-7---|
C-9-9----|9-9----|7-7----|7-7---------9-|

  E E(H.) E E(H.) E E E E E E E E  E  E Q  E  E Q
D--------|-------|----------------|----------------|
A--------|-------|----------------|----------------|
F-7-7----|7-7----|----------------|----------------|
C-5-5----|5-5----|5-5-X-5-X-X-5-X-|-----5*------5*-|
G-5-5----|5-5----|5-5-X-5-X-X-5-X-|5--5----5--5----|
C--------|-------|5-5-X-5-X-X-5-X-|5--5----5--5----|
                                   pm pm   pm pm
  E E E E E E E E  E E E E E E E E  E E E E E E E E  E E E E E E E E
D-----------------|----------------|----------------|----------------|
A-----------------|----------------|----------------|----------------|
F-----------------|----------------|----------------|----------------|
C-9-9-------------|9-9-------------|7-7-------------|7-7-------------|
G-9-9-9-9-9-9-9-9-|9-9-9-9-9-9-9-9-|7-7-7-7-7-7-7-7-|7-7-7-7-7-7-7-7-|
C-9-9-9-9-9-9-9-9-|9-9-9-9-9-9-9-9-|7-7-7-7-7-7-7-7-|7-7-7-7-7-7-7-7-|
      pmpmpmpmpmpm     pmpmpmpmpmpm     pmpmpmpmpmpm     pmpmpmpmpmpm
  E E E E E E E E  E E E E E E E E  E E E E E E E E  E E(Q)E E(Q)
D-----------------|----------------|----------------|------------|
A-----------------|----------------|----------------|------------|
F-7-7-------------|7-7-------------|----------------|------------|
C-5-5-5-5-5-5-5-5-|5-5-5-5-5-5-5-5-|5-5-------------|5-5---7-7---|
G-5-5-5-5-5-5-5-5-|5-5-5-5-5-5-5-5-|5-5-5-5-5-5-5-5-|5-5---7-7---|
C-----------------|----------------|5-5-5-5-5-5-5-5-|5-5---7-7---|
      pmpmpmpmpmpm     pmmpmpmpmpm      pmpmpmpmpmpm
 2W~~~~~~~~~~~~ 2W~~~~~~~~~~~~~~~~~
D-------|------|------|------------|
A-------|------|------|------------|
F-7-----|------|-9----|------------|
C-5-----|------|-7----|------------|
G-5-----|------|-7----|------------|
C-------|------|-7----|------------|

  W~~~~~  T  T  T  T  T  T   T  T  T  T  T  T   T  T  T  T  T  T
D-------|------------------|------------------|------------------|
A-------|------------------|------------------|------------------|
F-7-----|------------------|------------------|------------------|
C-5-----|-5--5--5--5--5--5-|-9--9--9--9--9--9-|-7--7--7--7--7--7-|
G-5-----|-5--5--5--5--5--5-|-9--9--9--9--9--9-|-7--7--7--7--7--7-|
C-5-----|-5--5--5--5--5--5-|-9--9--9--9--9--9-|-7--7--7--7--7--7-|
          pm pm pm pm pm pm  pm pm pm pm pm pm  pm pm pm pm pm pm
 2W~~~~~~~~~~~~ 2W~~~~~~~~~~~~~~~~~
D-------|------|------|------------|
A-------|------|------|------------|
F-7-----|------|-9----|------------|
C-5-----|------|-7----|------------|
G-5-----|------|-7----|------------|
C-------|------|-7----|------------|

  Q Q E E E E   Q Q E E E E   Q Q E E E E   E E E E E E E E
D-------------|-------------|-2-2-X-X-X-X-|-----------------|
A-------------|-------------|-3-3-X-X-X-X-|-----------------|
F-7-7-X-X-X-X-|-7-7-X-X-X-X-|-4-4-X-X-X-X-|-9-X-X-9-X-X-9-X-|
C-5-5-X-X-X-X-|-5-5-X-X-X-X-|-4-4-X-X-X-X-|-7-X-X-7-X-X-7-X-|
G-5-5-X-X-X-X-|-5-5-X-X-X-X-|-2-2-X-X-X-X-|-7-X-X-7-X-X-7-X-|
C-5-5-X-X-X-X-|-5-5-X-X-X-X-|-----X-X-X-X-|-7-X-X-7-X-X-7-X-|
  
 2W let fade
D-----|----|----|----|----|----|----|----|
A-----|----|----|----|----|----|----|----|
F-7---|----|----|----|----|----|----|----|
C-5---|----|----|----|----|----|----|----|
G-5---|----|----|----|----|----|----|----|
C-----|----|----|----|----|----|----|----|

  Q E E Q E E  [E] E Q E  Q. Q E E Q E E  [E] E E E   E E Q
D-------------|-------------|------------|------------------|
A-------------|-------------|------------|------------------|
F-------7---5-|[5]---4------|------7---5-|[5]---4-----------|
C-------7---5-|[5]---4----3-|------7---5-|[5]---4-----------|
G-------5---3-|[3]---2----3-|------5---3-|[3]---2-----------|
C-0-0-0---0---|----0---0--3-|0-0-0---0---|----0---0---3-5-3-|
  pmpmpm  pm       pm  pm    pmpmpm  pm   pm  pm
  Q E E Q E E  [E] E Q E  Q. Q E E H  Q E E H
D-------------|-------------|--------|--------|
A-------------|-------------|--------|--------|
F-------7---5-|[5]---4------|------7-|------9-|
C-------7---5-|[5]---4----3-|------7-|------9-|
G-------5---3-|[3]---2----3-|------5-|------7-|
C-0-0-0---0---|----0---0--3-|0-0-0---|0-0-0---|
  pmpmpm  pm       pm  pm    pmpmpm   pmpmpm
 2W~~~~~~~~~~~~ 2W~~~~~~~~~~~~~~~~~
D-------|------|------|------------|
A-------|------|------|------------|
F-7-----|------|-9----|------------|
C-5-----|------|-7----|------------|
G-5-----|------|-7----|------------|
C-------|------|-7----|------------|

  W~~~~~  T  T  T  T  T  T   T  T  T  T  T  T   T  T  T  T  T  T
D-------|------------------|------------------|------------------|
A-------|------------------|------------------|------------------|
F-7-----|------------------|------------------|------------------|
C-5-----|-5--5--5--5--5--5-|-9--9--9--9--9--9-|-7--7--7--7--7--7-|
G-5-----|-5--5--5--5--5--5-|-9--9--9--9--9--9-|-7--7--7--7--7--7-|
C-5-----|-5--5--5--5--5--5-|-9--9--9--9--9--9-|-7--7--7--7--7--7-|
          pm pm pm pm pm pm  pm pm pm pm pm pm  pm pm pm pm pm pm
 2W~~~~~~~~~~~~ 2W~~~~~~~~~~~~~~~~~
D-------|------|------|------------|
A-------|------|------|------------|
F-7-----|------|-9----|------------|
C-5-----|------|-7----|------------|
G-5-----|------|-7----|------------|
C-------|------|-7----|------------|

  Q Q E E E E   Q Q E E E E   Q Q E E E E   E E E E E E E E
D-------------|-------------|-2-2-X-X-X-X-|-----------------|
A-------------|-------------|-3-3-X-X-X-X-|-----------------|
F-7-7-X-X-X-X-|-7-7-X-X-X-X-|-4-4-X-X-X-X-|-9-X-X-9-X-X-9-X-|
C-5-5-X-X-X-X-|-5-5-X-X-X-X-|-4-4-X-X-X-X-|-7-X-X-7-X-X-7-X-|
G-5-5-X-X-X-X-|-5-5-X-X-X-X-|-2-2-X-X-X-X-|-7-X-X-7-X-X-7-X-|
C-5-5-X-X-X-X-|-5-5-X-X-X-X-|-----X-X-X-X-|-7-X-X-7-X-X-7-X-|

 2W
D-----|----|----|----|----|----|----|----|
A-----|----|----|----|----|----|----|----|
F-7---|----|----|----|----|----|----|----|
C-5---|----|----|----|----|----|----|----|
G-5---|----|----|----|----|----|----|----|
C-----|----|----|----|----|----|----|----|

  Q E E Q E E  [E] E Q E  Q. Q E E Q E E  [E] E E E   E E Q
D-------------|-------------|------------|------------------|
A-------------|-------------|------------|------------------|
F-------7---5-|[5]---4------|------7---5-|[5]---4-----------|
C-------7---5-|[5]---4----3-|------7---5-|[5]---4-----------|
G-------5---3-|[3]---2----3-|------5---3-|[3]---2-----------|
C-0-0-0---0---|----0---0--3-|0-0-0---0---|----0---0---3-5-3-|
  pmpmpm  pm       pm  pm    pmpmpm  pm       pm  pm
  Q E E Q E E  [E] E Q E  Q. Q E E Q E E  [E] E E E   E E Q
D-------------|-------------|------------|------------------| 
A-------------|-------------|------------|------------------|
F-------7---5-|[5]---4------|------7---5-|[5]---4-----------|
C-------7---5-|[5]---4----3-|------7---5-|[5]---4-----------|
G-------5---3-|[3]---2----3-|------5---3-|[5]---2-----------|
C-0-0-0---0---|----0---0--3-|0-0-0---0---|----0---0---3-5-3-|
  pmpmpm  pm       pm  pm    pmpmpm  pm       pm  pm

D----|
A----|
F-7--|
C-7--|
G-5--|
C----|
Suggest correction
comments
print report bad tab
7 comments total. Showing first comments.
+1 reply
aLEC dICKSON 350 Aug 31, 2009 11:23 AM

awsome tab. there's one thing i would correct, but i'm sure it's 99% correct. i saw i video of this song and it seemed perfect. good job.

+1 reply
breakinben04 21 Jan 17, 2010 05:48 PM

Nice man. Awesome tab. 5 Stars.

0 reply
MadDistortion 20 Dec 09, 2010 01:30 PM

Does anyone know what the * symbol means after the 5 in the 3rd measure from the top?

guest
You may want to rate the tab now too:
select rating
Wanna post a correction for this tab? Suggest correction