Oops, an error
Loading. Please wait.

Stick To Your Guns tab

version 1
version 1

Whole song

725 views 27 this week
no commentswrite comment
1 2 3 4 5
3 more votes to show rating
add to favorites
×
Save as Personal and add changes to this tab that will be seen only by you. Learn more ›
×
You can save this tab as Personal to edit and correct it or add notes. All changes will be seen only by you. Learn more »
launch autoscroll
font size
0
reset
how to read this tab
guitar tuner
edit
Autoscroll
slow
fast
+/-
esc
set tempo
stop
Video of me playing it: https://www.youtube.com/watch?v=Q74W5QtZbyk




[Intro]
When the weird sounds stop (Pick scrapes I think, actually) , hit this chord a couple times
D#|-----------------------------------------------------------------------------|
A#|-15--------------------------------------------------------------------------|
F#|-13--------------------------------------------------------------------------|
C#|-12--------------------------------------------------------------------------|
G#|-----------------------------------------------------------------------------|
C#|-----------------------------------------------------------------------------|


[Main Riff]

D#|-------------------------------------------|--------------|-----------------|
A#|-------------------------------------------|-first ending-|-second ending---|
F#|-------------------------------------------|--------------|-12-12-12-12-----|
C#|-5-5-----------5-5-----------5-5-----------|-5555---------|-11-11-11-11-----|
G#|-5-5-----------5-5-----------5-5-----------|-4444---------|-10-10-10-10-----|
C#|-5-5-3-5-6-5-3-5-5-3-5-6-5-3-5-5-3-5-6-5-3-|--------------|-10-10-10-10-----|
        * * * * *     * * * * *     * * * * *

[Verse]
           Pick either the A# string or the D# string notes are same. 
D#|-------|-----------------------------14--12--10--14--12--10-------|--------|
A#|-------|-19--17--15--19--17--15-=OR=------------------------------|--------|
F#|-------|----------------------------------------------------------|--------|
C#|-8--10-|----------------------------------------------------------|-8--10--|
G#|-8--10-|----------------------------------------------------------|-8--10--|
C#|-8--10-|----------------------------------------------------------|-8--10--|


[Pre Chorus]

D#|---------------------------------------------------------------------------|
A#|---------------------------------------------------------------------------|
F#|---------------------------------------------------------------------------|
C#|-55-----------55-----------55--------------555-----------------------------|
G#|-55-----------55-----4-----55-----5--------444-----------------------------|
C#|-55-3-5-6-5-3-55-3-3---3-3-55-3-3---3-3--x---------------------------------|
       * * * * *    * *   * *    * *   * * 

*Before the 2nd Chorus, the Pre-Chorus riff is played twice and the 2nd time the final chord changes:

D#|---------------------------------------------------------------------------|
A#|---------------------------------------------------------------------------|
F#|---------------------------------------------------------------------------|
C#|-55-----------55-----------55----------------------------------------------|
G#|-55-----------55-----4-----55-----5--------666-----------------------------|
C#|-55-3-5-6-5-3-55-3-3---3-3-55-3-3---3-3--x-666-----------------------------|


D#|----------------------------------------------------------------------------------------------------------|
A#|----STRUM OCTAVE CHORDS 4x EACH EXCEPT LAST ONE ONLY 3x---------------------------------------------------|
F#|--------------------------------------------------------------/12-/14-/15-/17-----------------------------|
C#|--------------------------------------------------------------/x--/x--/x--/-x------------------------555..|
G#|-10-8-10-xx-8-7-6-x-/55555555-\3333-/888---10-8-10-xx-8-7-6-x-/10-/12-/13-/15----1111-3333-0000-1111-444..|
C#|-10-8-10-xx-8-7-6-x-/55555555-\3333-/888---10-8-10-xx-8-7-6-x--------------------1111-3333-0000-1111------|
                                                                                                        ***..
In pre-chorus, keep hitting the 45 chord until the chorus riff kicks in. Think it's 16 strums/picks, ran out 
of room to tab it. Use your brain.

[Chorus]

On 1st Chorus, the riff stops when he says "You're on your own"

D#|-----------------------------------------------------------------------------|
A#|-----------------------------------------------------------------------------|
F#|-----------------------------------------------------------------------------|
C#|-5\0------5--------5-------------------------5--------5--------5-------------|
G#|-5\0------5--------5-------------------------5--------5--------5-------------|
C#|-5\0-00-0-5/0-00-0-5/0-00-0-6-5-3-5-6-5-3-5--5/0-00-0-5/0-00-0-5/0-00-0------|
        ** *     ** *     ** * * * * * * * * *      ** *     ** *     ** *
On 2nd Chorus, end it with this:

D#|---------------------------------------------------------------------------|
A#|---------------------------------------------------------------------------|
F#|---------------------------------------------------------------------------|
C#|---------------------------------------------------------------------------|
G#|-6-6-6-5~~~----------------------------------------------------------------|
C#|-6-6-6-5~~~----------------------------------------------------------------|

In final Chorus, when it repeats the whole thing twice, you will play this the first time around:


D#|----------------------------------------------------------------------|
A#|----------------------------------------------------------------------|
F#|----------------------------------------------------------------------|
C#|----------------------------------------------------------------------|
G#|-6-6-6----------------------------------------------------------------|
C#|-6-6-6----------------------------------------------------------------|

In the final chorus, on the 2nd time around it ends on this:


D#|---------------------------------------------------------------------------|
A#|---------------------------------------------------------------------------|
F#|---------------------------------------------------------------------------|
C#|---------------------------------------------------------------------------|
G#|-6-6-5----------------------------------------------------------------|
C#|-6-6-5----------------------------------------------------------------|

[Bridge]

Coming out of the 2nd chorus, you will already be holding the 5th fret barre chord:

D#|-----------------10-10-10-10---8--8--8--8--10-10-10-10---8--8--8--8----15--15--15--15|
A#|----------------8--8--8--8---11-11-11-11--8--8--8--8---11-11-11-11---15--15--15--15--|
F#|-------------------------------------------------------------------------------------|
C#|-------------------------------------------------------------------------------------|
G#|-(5)-3--1--3-------------------------------------------------------------------------|
C#|-(5)-3--1--3-------------------------------------------------------------------------|

Continued:

D#|---17--17--17--17--18--18--18--18--20--20--20-20\0-------------------------|
A#|-15--15--15--15--15--15--15--15--15--15--15--------------------------------|
F#|---------------------------------------------------------------------------|
C#|---------------------------------------------------------------------------|
G#|---------------------------------------------------------------------------|
C#|---------------------------------------------------------------------------|


After the bridge you come back in at the Pre-Chorus riff on the 5th fret barre chord and go from there.



That's the whole song. Bridge might be hard to hear slightly but it is all there. 
Use your head and your ears; The riffs fit, you're going to need to figure out the timing yourself though.
************************************

| x   Dead note
| g   Grace note
| (n) Ghost note
| h   Hammer-on
| p   Pull-off
| r   Release
| >   Accented note
| t   Tapping
| b   Bend
| br  Bend release
| pb  Pre-bend
| pbr Pre-bend release
| /   Slide up
| \   Slide down
| ~   Vibrato
| s   Slap
| P   Pop
| *  Palm mute
| TR  Trill
| N   Tremolo

************************************

            
            
Suggest correction
Creating personal tab
Creating personal tab
You can edit any tab online and save it as your Personal.

You can edit, replace or remove any tab part or add personal notes – all changes will be seen only by you.

Personal tabs can be accessed anytime from any device, even offline.
Learn more »
Give kudos to tab author, rate the tab!
1 2 3 4 5
comments
print report bad tab
guest
You may want to rate the tab now too:
select rating
Wanna post a correction for this tab? Suggest correction