Oops, an error
Loading. Please wait.

Theres No Going Back Tab

version 1
version 1

Whole song

4,924 views 3 this week
2 commentsread comments
1 2 3 4 5
x 3
add to favorites
launch autoscroll
font size
0
reset
how to read this tab
guitar tuner
×
Best way to learn
"Theres No Going Back"
Autoscroll
slow
fast
+/-
esc
set tempo
stop
Drop D Tuning

Verses (Notes on low d string are optional)
e------------------------------------------|
b------------------------------------------|
g------------------------------------------|
d--77777777-99999999-66666666-77777777-66--|
a--77777777-77777777-77777777-77777777-77--|
d-(77777777-77777777-77777777-77777777-77)-|

"whoa oh" part
e---------------------------------------|
b---------------------------------------|
g--------------------77777777-66666666--|
d--77777777-99999999-xxxxxxxx-xxxxxxxx--|
a--77777777-77777777-77777777-77777777--|
d-(77777777-77777777-77777777-77777777)-|

Chorus
Rhythm
e-----------------------------------------------------|
b-----------------------------------------------------|
g-----------------------------------------------------|
d-444444444444-000000000000-777777777777-666666666666-|
a-444444444444-000000000000-777777777777-777777777777-|
d-444444444444-000000000000-777777777777-666666666666-|

Lead  (2nd time around, omit the 6h7 stuff.  I'm not really sure
if that's even the right notes but there's always constructive criticism.
Another note, other chorus' don't even have that part in.
Keep playing the High d 6 notes)
e----------------------------------------------------------------------------------|
b----------------------------------------------------------------------------------|
g----------------------------------------------6666--------------------------------|
d-7777777777777777-66666666-77777777-7777-9999------9999-66666666------------------|
a----------------------------------------------------------------------7-7-----7-7-|
d------------------------------------------------------------------6h7-----6h7-----|

Post Chorus
e---------------------------------------------|
b---------------------------------------------|
g---------------------------------------------|
d-777-999-777-666-6h7-7-777-999-777-666-6h7-7-|
a---------------------------------------------|
d---------------------------------------------|

e---------------------------------------------|
b---------------------------------------------|
g-------------------------------777-666-6h7p6-|
d-777-999-777-666-6h7-7-777-999---------------|
a---------------------------------------------|
d---------------------------------------------|

Bridge
Guitar 1 Plays Verse
Guitar 2 (Kinda iffy)
e------------------------------------|
b---10---12---9----10---10---10---10-|
g-9----9----9----9----9----9----9----| repeat
d------------------------------------|
a------------------------------------|
d------------------------------------|
Suggest correction
Give kudos to tab author, rate the tab!
1 2 3 4 5
comments
print report bad tab
2 comments total.
0 reply
CinciMusician 52 Sep 01, 2013 08:28 PM

Maybe try 222 instead of 676

+1 reply
Sixxstarr 201 Dec 26, 2013 05:06 PM

they only have one guitarist...the other one plays bass

guest
You may want to rate the tab now too:
select rating
Wanna post a correction for this tab? Suggest correction