Oops, an error
Loading. Please wait.

Too Many Words tab

version 2
version 2

Whole song

15,602 views 9 this week
4 commentsread comments
1 2 3 4 5
x 8
add to favorites
×
Save as Personal and add changes to this tab that will be seen only by you. Learn more ›
×
You can save this tab as Personal to edit and correct it or add notes. All changes will be seen only by you. Learn more »
launch autoscroll
font size
0
reset
how to read this tab
guitar tuner
edit
Autoscroll
slow
fast
+/-
esc
set tempo
stop
Artist   : Sick Puppies
Title    : Too Many Words
Album    : Dressed Up As Life

Tabbed by: dustin7up
Tuning   : Drop-C {C,G,C,F,A,D}



Intro/Verse: {00:00 - 00:39}
D|-------------------------------------------------------------------------------------|
A|-------------------------------------------------------------------------------------|
F|-------5--------5-----------5--------5-----------4--------4--------4--------4--------|
C|-----5----5---5-----------5----5---5-----------5----5---5--------5----5---5----------| {x3}
G|---3--------3------2-1--0--------0------0-1--2--------2------0-2--------2------0-2---|
C|-------------------------------------------------------------------------------------|

Verse Part II:
D|------------------------|
A|--------0~--------------|
F|---5~---4~---4~---------|
C|---5~---5~---4~---------| {x1}
G|---3~---2~---2~---0-2---|
C|------------------------|

(Repeat Intro/Verse) {x1}

Chorus: {00:40 - 01:02}
D|--------------------------------------------|
A|--------------------------------------------|
F|---5-5--5-5---9-9--9-9----------------------|
C|---5-5--3-3---7-7--7-7---9-9-9-9--7-7-7-7---| {x2}
G|---3-3--3-3---7-7--7-7---5-5-5-5--5-5-5-5---|
C|--------3-3---7-7--7-7---5-5-5-5--5-5-5-5---|

Chorus Part II:
D|----------------------------------------------------------|
A|----------------------------------------------------------|
F|---5-5-5-5-5-5-5-5---9-9-9-9-9-9-9-9-----------------5~---|
C|---3-3-3-3-3-3-3-3---7-7-7-7-7-7-7-7---9-9-9-9--7~---3~---| {x1}
G|---3-3-3-3-3-3-3-3---7-7-7-7-7-7-7-7---5-5-5-5--5~---3~---|
C|---3-3-3-3-3-3-3-3---7-7-7-7-7-7-7-7---5-5-5-5--5~--------|

(Repeat Intro/Verse) {x3} {01:03 - 01:26}

Pre-Chorus: {01:27 - 01:34}
D|---------------------------------------------------------------------------|
A|---------------------------------------------------------------------------|
F|---5-5--x-x--5-5--x-x---9-9-------9-9--------------------------------------|
C|---5-5--x-x--5-5--x-x---7-7--x-x--7-7--x-x---9-9--x-x--9~---7~---x-x-x-x---| {x1}
G|---3-3--x-x--3-3--x-x---7-7--x-x--7-7--x-x---5-5--x-x--5~---5~---x-x-x-x---|
C|------------------------7-7--x-x--7-7--x-x---5-5--x-x--5~---5~---x-x-x-x---|

Chorus: {01:35 - 01:59}
D|----------------------------------------------------------|
A|----------------------------------------------------------|
F|---5-5-5-5-5-5-5-5---9-9-9-9-9-9-9-9----------------------|
C|---3-3-3-3-3-3-3-3---7-7-7-7-7-7-7-7---9-9-9-9--7-7-7-7---| {x3}
G|---3-3-3-3-3-3-3-3---7-7-7-7-7-7-7-7---5-5-5-5--5-5-5-5---|
C|---3-3-3-3-3-3-3-3---7-7-7-7-7-7-7-7---5-5-5-5--5-5-5-5---|

Bridge: {02:00 - 02:15}
D|---------------------------------------------------------------------|
A|---------------------------------------------------------------------|
F|---5~---7~---9~---5~---5~---7~---------------------------------------|
C|---3~---5~---7~---5~---3~---5~---7--7--7--7--7--7--7-7-7-7-7-7-7-7---|
G|---3~---5~---7~---3~---3~---5~---7--7--7--7--7--7--7-7-7-7-7-7-7-7---|
C|---3~---5~---7~--------3~---5~---7--7--7--7--7--7--7-7-7-7-7-7-7-7---|
  pm                               .  .  .  .  .  .  . . . . . . . .

Solo: {02:16 - 02:30}
D|---------------------------------------------------|
A|---12-12-12-12-------------------------------------|
F|-----------------9-9-9-9---12-12-12-12---5-5-5-5---|
C|---------------------------------------------------|
G|---------------------------------------------------|
C|---------------------------------------------------|

D|---------------------------------------------------|
A|---12-12-12-12-------------------------------------|
F|-----------------9-9-9-9---12-12-12-12-------------|
C|-----------------------------------------x-x-x-x---|
G|-----------------------------------------x-x-x-x---|
C|-----------------------------------------x-x-x-x---|

D|---------------------------------------------------------------------------------|
A|---12-12-12-12-------------------------------------12-12b-12-12b-12-12b-12-12b---|
F|-----------------9-9-9-9---12-12-12-12---5-5-5-5---------------------------------|
C|---------------------------------------------------------------------------------|
G|---------------------------------------------------------------------------------|
C|---------------------------------------------------------------------------------|

Chorus Part II: {02:31 - 02:54}
D|--------------------------------------------------------------------------|
A|--------------------------------------------------------------------------|
F|---5-5-----5-5-----9-9------------------7-7--7-7-7-7--7-7--7-7-7-7--------|
C|---3-3--3--3-3--3--7-7--7--7-7-7--7-5---5-5--x-x-x-x--5-5--x-x-x-x--7-5---| {x3}
G|---3-3--3--3-3--3--7-7--7--7-7-7--7-5---5-5--5-5-5-5--5-5--5-5-5-5--7-5---|
C|---3-3--3--3-3--3--7-7--7--7-7-7--7-5---5-5-----------5-5-----------7-5---|
  pm      .       .       .  . . .                                    .

Outro: {02:55 - 03:21}
D|--------------------------------------------------------------|
A|--------------------------------------------------------------|
F|---5-5--5-5-5-5---7-7--7-7-7-7---5-5--5-5-5-5--5-5--5-5-5-5---|
C|---3-3--x-x-x-x---5-5--x-x-x-x---3-3--x-x-x-x--3-3--x-x-x-x---| {x3}
G|---3-3--3-3-3-3---5-5--5-5-5-5---3-3--3-3-3-3--3-3--3-3-3-3---|
C|---3-3------------5-5------------3-3-----------3-3------------|



            
            
Suggest correction
Creating personal tab
Creating personal tab
You can edit any tab online and save it as your Personal.

You can edit, replace or remove any tab part or add personal notes – all changes will be seen only by you.

Personal tabs can be accessed anytime from any device, even offline.
Learn more »
comments
print report bad tab
4 comments total. Showing first comments.
-1 reply
MrCash247 103 Sep 25, 2008 11:14 PM

PERFECTION!!!!!

-1 reply
trancebam 10 Jun 13, 2009 12:40 AM

It's too high. It should be a whole step lower.

0 reply
RsEagle27 31 Feb 15, 2010 03:20 PM

The last "Chorus part II" isnt 100% accurate.

guest
You may want to rate the tab now too:
select rating
Wanna post a correction for this tab? Suggest correction