Oops, an error
Loading. Please wait.

What Are You Looking For tab

version 1
version 1

Whole song

Interactive

9,484 views 1 this week
3 commentsread comments
1 2 3 4 5
x 5
add to favorites
×
Save as Personal and add changes to this tab that will be seen only by you. Learn more ›
×
You can save this tab as Personal to edit and correct it or add notes. All changes will be seen only by you. Learn more »
launch autoscroll
font size
0
reset
how to read this tab
guitar tuner
edit
Autoscroll
slow
fast
+/-
esc
set tempo
stop
Song Title: What Are You Looking For
Artist: Sick Puppies
Tabber: Max Deuble

Another great song off the album 'Dressed Up As Life'. In order to 

get the rhythm right for the first verse i recommend you listen to 

the song. The choruses are quite simple. Any comments or suggestions 

please email me at deuble.max@gmail.com


Gtr I (C G C F A D) - 'Untitled'
Gtr II (C G C F A D) - 'Untitled'
Gtr III (C G C F A D) - 'Untitled'

    Q=95
   4/4
    Gtr I
||------------------------|-----------------------|
||o-5-5-5-5-5-5-5-5-5-5-5-|-----------------------|
||--6-6-6-6-6-6-6-6-6-6-6-|-6-6-6-6-6-6-6-6-6-6-6-|
||--7-7-7-7-7-7-7-7-7-7-7-|-7-7-7-7-7-7-7-7-7-7-7-|
||o-4-4-4-4-4-4-4-4-4-4-4-|-5-5-5-5-5-5-5-5-5-5-5-|
||--4-4-4-4-4-4-4-4-4-4-4-|-0-0-0-0-0-0-0-0-0-0-0-|


|-----------------------|-----------------------|
|-5-5-5-5-5-5-5-5-5-5-5-|-----------------------|
|-6-6-6-6-6-6-6-6-6-6-6-|-6-6-6-6-7-7-7-7-7-7-7-|
|-7-7-7-7-7-7-7-7-7-7-7-|-7-7-7-7-7-7-7-7-7-7-7-|
|-4-4-4-4-4-4-4-4-4-4-4-|-5-5-5-5-5-5-5-5-5-5-5-|
|-4-4-4-4-4-4-4-4-4-4-4-|-0-0-0-0-0-0-0-0-0-0-0-|


|-----------------------|-----------------------|
|-5-5-5-5-5-5-5-5-5-5-5-|-----------------------|
|-6-6-6-6-6-6-6-6-6-6-6-|-6-6-6-6-6-6-6-6-6-6-6-|
|-7-7-7-7-7-7-7-7-7-7-7-|-7-7-7-7-7-7-7-7-7-7-7-|
|-4-4-4-4-4-4-4-4-4-4-4-|-5-5-5-5-5-5-5-5-5-5-5-|
|-4-4-4-4-4-4-4-4-4-4-4-|-0-0-0-0-0-0-0-0-0-0-0-|


|--------------|--------------------||
|--------------|-------------------o||
|-6--6--4-4--3-|-(3)-3-3-3-3-3-3-3--||
|-7--7--5-5--4-|-(4)-4-4-4-4-4-4-4--||
|-7--7--5-5--4-|-(4)-4-4-4-4-4-4-4-o||
|-7--7--5-5--4-|-(4)-4-4-4-4-4-4-4--||


    Gtr II
||------------------|-----------------|
||o-----------------|-----------------|
||------------------|-----------------|
||--7-7-7-7-7-7-7-7-|-7-7-7-7-7-7-7-7-|
||o-7-7-7-7-7-7-7-7-|-7-7-7-7-7-7-7-7-|
||--7-7-7-7-7-7-7-7-|-7-7-7-7-7-7-7-7-|


|-----------------|-----------------|
|-----------------|-----------------|
|-----------------|-----------------|
|-5-5-5-5-5-5-5-5-|-5-5-5-5-5-5-5-5-|
|-5-5-5-5-5-5-5-5-|-5-5-5-5-5-5-5-5-|
|-5-5-5-5-5-5-5-5-|-5-5-5-5-5-5-5-5-|


|-----------------|-----------------|
|-----------------|-----------------|
|-----------------|-----------------|
|-4-4-4-4-4-4-4-4-|-0-0-0-0-0-0-0-0-|
|-4-4-4-4-4-4-4-4-|-0-0-0-0-0-0-0-0-|
|-4-4-4-4-4-4-4-4-|-0-0-0-0-0-0-0-0-|


  1.
|-----------------|------------------||
|-----------------|-----------------o||
|-----------------|------------------||
|-7-7-7-7-7-7-7-7-|-7-7-7-7-7-7-7-7--||
|-7-7-7-7-7-7-7-7-|-7-7-7-7-7-7-7-7-o||
|-7-7-7-7-7-7-7-7-|-7-7-7-7-7-7-7-7--||


  2.
|-----------------|----------------|
|-----------------|----------------|
|-----------------|----------------|
|-7-7-7-7-7-7-7-7-|-7-7-7-7-7\--2--|
|-7-7-7-7-7-7-7-7-|-7-7-7-7-7\--2--|
|-7-7-7-7-7-7-7-7-|-7-7-7-7-7\--2--|


  Gtr II
  PM-------------------------------------------
|---------------------------------------------|
|---------------------------------------------|
|---------------------------------------------|
|-4--4----4--4--------------------------------|
|-4--4----4--4--------------------------------|
|-4--4----4--4--------------------------------|
|
| Gtr III
| PM-------------------------------------------
|---------------------------------------------|
|---------------------------------------------|
|---------------------------------------------|
|---------------------------------11----------|
|-9-11-12-9-11-12-9-11-12-9-11-12----12-11-12-|
|---------------------------------------------|


 -----------|
|---------------------------------------------|
|---------------------------------------------|
|---------------------------------------------|
|-0--0----0--0--------------------------------|
|-0--0----0--0--------------------------------|
|-0--0----0--0--------------------------------|
|
|------------------------------------------|
|---------------------------------------------|
|---------------------------------------------|
|---------------------------------------------|
|---------------------------------11----------|
|-9-11-12-9-11-12-9-11-12-9-11-12----12-11-12-|
|---------------------------------------------|


  PM--------------------------------------------
|----------------------------------------------|
|----------------------------------------------|
|----------------------------------------------|
|-7--7----7--7\--------------------------------|
|-7--7----7--7\--------------------------------|
|-7--7----7--7\--------------------------------|
|
| PM--------------------------------------------
|----------------------------------------------|
|----------------------------------------------|
|----------------------------------------------|
|----------------------------------11----------|
|-9-11-12-9-11--12-9-11-12-9-11-12----12-11-12-|
|----------------------------------------------|


 -----------|
|---------------------------------------------|
|---------------------------------------------|
|---------------------------------------------|
|-2--2----2--2---------------------------2----|
|-2--2----2--2---------------------------2----|
|-2--2----2--2---------------------------2----|
|
|------------------------------------------|
|---------------------------------------------|
|---------------------------------------------|
|---------------------------------------------|
|---------------------------------11----------|
|-9-11-12-9-11-12-9-11-12-9-11-12----12-11-12-|
|---------------------------------------------|


    Gtr II
    PM-------------------------------------------
||----------------------------------------------|
||o---------------------------------------------|
||----------------------------------------------|
||--4--4----4--4--------------------------------|
||o-4--4----4--4--------------------------------|
||--4--4----4--4--------------------------------|
|
|   Gtr III
|   PM-------------------------------------------
||----------------------------------------------|
||o---------------------------------------------|
||----------------------------------------------|
||----------------------------------11----------|
||o-9-11-12-9-11-12-9-11-12-9-11-12----12-11-12-|
||----------------------------------------------|


 -----------|
|----------------------------------------------|
|----------------------------------------------|
|----------------------------------------------|
|-0--0----0--0---------------------------------|
|-0--0----0--0---------------------------------|
|-0--0----0--0---------------------------------|
|
|------------------------------------------|
|----------------------------------------------|
|----------------------------------------------|
|----------------------------------------------|
|---------------------------------11-----------|
|-9-11-12-9-11-12-9-11-12-9-11-12----12-11-12--|
|----------------------------------------------|


  1.
  PM--------------------------------------------
|----------------------------------------------|
|----------------------------------------------|
|----------------------------------------------|
|-7--7----7--7\--------------------------------|
|-7--7----7--7\--------------------------------|
|-7--7----7--7\--------------------------------|
|
| PM--------------------------------------------
|----------------------------------------------|
|----------------------------------------------|
|----------------------------------------------|
|----------------------------------11----------|
|-9-11-12-9-11--12-9-11-12-9-11-12----12-11-12-|
|----------------------------------------------|


 -----------|
|----------------------------------------------||
|---------------------------------------------o||
|----------------------------------------------||
|-2--2----2--2---------------------------------||
|-2--2----2--2--------------------------------o||
|-2--2----2--2---------------------------------||
|
|------------------------------------------|
|----------------------------------------------||
|---------------------------------------------o||
|----------------------------------------------||
|---------------------------------11-----------||
|-9-11-12-9-11-12-9-11-12-9-11-12----12-11-12-o||
|----------------------------------------------||


  2.
|--------------|-------------------|------|
|--------------|-------------------|------|
|--------------|-------------------|------|
|-7--7--5-5--4-|-(4)-4-4-4-4-4-4-4-|-0----|
|-7--7--5-5--4-|-(4)-4-4-4-4-4-4-4-|-0----|
|-7--7--5-5--4-|-(4)-4-4-4-4-4-4-4-|-0----|


    Gtr II
||------------------|-----------------|
||o-----------------|-----------------|
||------------------|-----------------|
||--7-7-7-7-7-7-7-7-|-7-7-7-7-7-7-7-7-|
||o-7-7-7-7-7-7-7-7-|-7-7-7-7-7-7-7-7-|
||--7-7-7-7-7-7-7-7-|-7-7-7-7-7-7-7-7-|


|-----------------|-----------------|
|-----------------|-----------------|
|-----------------|-----------------|
|-5-5-5-5-5-5-5-5-|-5-5-5-5-5-5-5-5-|
|-5-5-5-5-5-5-5-5-|-5-5-5-5-5-5-5-5-|
|-5-5-5-5-5-5-5-5-|-5-5-5-5-5-5-5-5-|


|-----------------|-----------------|
|-----------------|-----------------|
|-----------------|-----------------|
|-4-4-4-4-4-4-4-4-|-0-0-0-0-0-0-0-0-|
|-4-4-4-4-4-4-4-4-|-0-0-0-0-0-0-0-0-|
|-4-4-4-4-4-4-4-4-|-0-0-0-0-0-0-0-0-|


  1.
                            PM----|
|-----------------|------------------||
|-----------------|-----------------o||
|-----------------|------------------||
|-7-7-7-7-7-7-7-7-|-7-7-7-7----------||
|-7-7-7-7-7-7-7-7-|-7-7-7-7-0-0-0-0-o||
|-7-7-7-7-7-7-7-7-|-7-7-7-7-0-0-0-0--||


  2.
                            ~~~~~
|-----------------|---------------|
|-----------------|---------------|
|-----------------|---------------|
|-7-7-7-7-7-7-7-7-|-7-7-7-7-------|
|-7-7-7-7-7-7-7-7-|-7-7-7-7-------|
|-7-7-7-7-7-7-7-7-|-7-7-7-7-7--6--|


  Gtr II
|-----------------|------------------|
|-----------------|------------------|
|-----------------|------------------|
|-4-4-4-4-4-4-4-4-|-4-4-4-4-4-4--4-4-|
|-4-4-4-4-4-4-4-4-|-4-4-4-4-4-4--4-4-|
|-4-4-4-4-4-4-4-4-|-4-4-4-4-4-4--4-4-|
|
| Gtr III
|-----------------|------------------|
|-----------------|------------------|
|-----------------|-------------13---|
|-----------------|--------------x---|
|-----------------|-------------11---|
|-----------------|------------------|


|------------------|-----------------------|
|------------------|-----------------------|
|------------------|-----------------------|
|--0-0-0-0-0-0-0-0-|---0--0-0-0-0-0-0-<12>-|
|--0-0-0-0-0-0-0-0-|---0--0-0-0-0-0-0-<12>-|
|--0-0-0-0-0-0-0-0-|---0--0-0-0-0-0-0-<12>-|
|
|------------------|-----------------------|
|------------------|-----------------------|
|-14---------------|-(14)------------------|
|--x---------------|--(x)------------------|
|-12---------------|-(12)------------------|
|------------------|-----------------------|


|-----------------|-----------------|
|-----------------|-----------------|
|-----------------|-----------------|
|-7-7-7-7-7-7-7-7-|-5-5-5-5-5-5-5-4-|
|-7-7-7-7-7-7-7-7-|-5-5-5-5-5-5-5-4-|
|-7-7-7-7-7-7-7-7-|-5-5-5-5-5-5-5-4-|


|-------------------|-------------------------|
|-------------------|-------------------------|
|-------------------|-------------------------|
|-(4)-4-4-4-4-4-4-4-|--3--3--3--3--3--3--3--3-|
|-(4)-4-4-4-4-4-4-4-|--3--3--3--3--3--3--3--3-|
|-(4)-4-4-4-4-4-4-4-|--3--3--3--3--3--3--3--3-|
|
|-------------------|-------------------------|
|-------------------|-------------------------|
|-------------------|-10-10-10-10-10-10-10-10-|
|-------------------|--x--x--x--x--x--x--x--x-|
|-------------------|--8--8--8--8--8--8--8--8-|
|-------------------|-------------------------|


|-------------------------|
|-------------------------|
|-------------------------|
|--3--3--3--3--3--3--3--3-|
|--3--3--3--3--3--3--3--3-|
|--3--3--3--3--3--3--3--3-|
|
|-------------------------|
|-------------------------|
|-14-14-14-14-14-14-14-14-|
|--x--x--x--x--x--x--x--x-|
|-12-12-12-12-12-12-12-12-|
|-------------------------|


  Gtr II
|-----------|------------|----------|--------|
|-----------|------------|----------|--------|
|-----------|------------|----------|--------|
|--7--------|-(7)--------|-5--------|-(5)----|
|--7--------|-(7)--------|-5--------|-(5)----|
|--7--------|-(7)--------|-5--------|-(5)----|
|
| Gtr III
|  >
|-----------|------------|----------|--------|
|-----------|------------|----------|--------|
|-14--------|------------|----------|--------|
|--x--------|------------|----------|--------|
|-12--------|------------|----------|--------|
|-----------|------------|----------|--------|


                        PM------------|
|----------|----------|-----------------|-----------------|
|----------|----------|-----------------|-----------------|
|----------|----------|-----------------|-----------------|
|-4--------|-0--------|-----------------|-7-7-7-7-7-7-7-7-|
|-4--------|-0--------|-7-7-7-7-7-7-7-7-|-7-7-7-7-7-7-7-7-|
|-4--------|-0--------|-7-7-7-7-7-7-7-7-|-7-7-7-7-7-7-7-7-|


  Gtr II
|-----------------|-----------------|
|-----------------|-----------------|
|-----------------|-----------------|
|-7-7-7-7-7-7-7-7-|-7-7-7-7-7-7-7-7-|
|-7-7-7-7-7-7-7-7-|-7-7-7-7-7-7-7-7-|
|-7-7-7-7-7-7-7-7-|-7-7-7-7-7-7-7-7-|


|-----------------|-----------------|
|-----------------|-----------------|
|-----------------|-----------------|
|-5-5-5-5-5-5-5-5-|-5-5-5-5-5-5-5-5-|
|-5-5-5-5-5-5-5-5-|-5-5-5-5-5-5-5-5-|
|-5-5-5-5-5-5-5-5-|-5-5-5-5-5-5-5-5-|


|-----------------|-----------------|
|-----------------|-----------------|
|-----------------|-----------------|
|-4-4-4-4-4-4-4-4-|-0-0-0-0-0-0-0-0-|
|-4-4-4-4-4-4-4-4-|-0-0-0-0-0-0-0-0-|
|-4-4-4-4-4-4-4-4-|-0-0-0-0-0-0-0-0-|


|-----------------|-----------------|
|-----------------|-----------------|
|-----------------|-----------------|
|-7-7-7-7-7-7-7-7-|-7-7-7-7-7-7-7-7-|
|-7-7-7-7-7-7-7-7-|-7-7-7-7-7-7-7-7-|
|-7-7-7-7-7-7-7-7-|-7-7-7-7-7-7-7-7-|


|-----------------|-----------------|
|-----------------|-----------------|
|-----------------|-----------------|
|-7-7-7-7-7-7-7-7-|-7-7-7-7-7-7-7-7-|
|-7-7-7-7-7-7-7-7-|-7-7-7-7-7-7-7-7-|
|-7-7-7-7-7-7-7-7-|-7-7-7-7-7-7-7-7-|


|-----------------|-----------------|
|-----------------|-----------------|
|-----------------|-----------------|
|-5-5-5-5-5-5-5-5-|-5-5-5-5-5-5-5-5-|
|-5-5-5-5-5-5-5-5-|-5-5-5-5-5-5-5-5-|
|-5-5-5-5-5-5-5-5-|-5-5-5-5-5-5-5-5-|


|-----------------|------|
|-----------------|------|
|-----------------|------|
|-4-4-4-4-4-4-4-4-|-0----|
|-4-4-4-4-4-4-4-4-|-0----|
|-4-4-4-4-4-4-4-4-|-0----|


|------------|------------|------------|--------*|
|------------|------------|------------|--------*|
|------------|------------|------------|--------*|
|-(0)--------|-(0)--------|-(0)--------|-(0)----*|
|-(0)--------|-(0)--------|-(0)--------|-(0)----*|
|-(0)--------|-(0)--------|-(0)--------|-(0)----*|

            
            
Suggest correction
Creating personal tab
Creating personal tab
You can edit any tab online and save it as your Personal.

You can edit, replace or remove any tab part or add personal notes – all changes will be seen only by you.

Personal tabs can be accessed anytime from any device, even offline.
Learn more »
comments
print report bad tab
3 comments total.
+1 reply
THEguitarGOD789 10 Aug 18, 2008 03:30 PM

looks great dude. i haven't tried it yet but it looks easy to read. good work! ftw

+1 reply
SixStringMuzik 10 Nov 24, 2011 06:58 AM

This is a good effort, but it's not right. He doesn't change the top note of the guitar part, he changes the bass note. Only top the high note changes is when he adds in a sharp on the second part of the first verse.

0 reply
SixStringMuzik 10 Nov 24, 2011 06:59 AM

Only time*, that is.

guest
You may want to rate the tab now too:
select rating
Wanna post a correction for this tab? Suggest correction