Oops, an error
Loading. Please wait.

Where Do I Begin Bass Tab

61 views 3 this week
no commentswrite comment
1 2 3 4 5
x 7
add to favorites
launch autoscroll
font size
0
reset
guitar tuner
Autoscroll
slow
fast
+/-
esc
set tempo
stop
Help us to improve Ultimate-Guitar.com Take our survey!
×
Author
Difficulty
intermediate
                               /// Where Do I Begin by Sick Puppies ///

Tabbed by Izach Prince Paul


[Intro]

G|-------------|------------------|--------------------|------------------------|
D|-------------|------------------|--------------------|------------------------|
A|----8-7---8--|----10-8---10-8---|-----12-10----12----|-----12-10----12-10-----|
E|--6-----6----|--8------8--------|--10-------10-------|--10-------10-------10--|

[Verse 1]
I can see the time I’ve wasted, And my life is passing by
G|-------------|------------------|--------------------|------------------------|
D|-------------|------------------|--------------------|------------------------|
A|----8-7---8--|----10-8---10-8---|-----12-10----12----|-----12-10----12-10-----|
E|--6-----6----|--8------8--------|--10-------10-------|--10-------10-------10--|

It’s so hard to keep on living, Trying to keep this dream alive
G|-------------|------------------|--------------------|------------------------|
D|-------------|------------------|--------------------|------------------------|
A|----8-7---8--|----10-8---10-8---|-----12-10----12----|-----12-10----12-10-----|
E|--6-----6----|--8------8--------|--10-------10-------|--10-------10-------10--|

Try to tell myself it’s worth it, But the words never come out
G|-------------|------------------|--------------------|------------------------|
D|-------------|------------------|--------------------|------------------------|
A|----8-7---8--|----10-8---10-8---|-----12-10----12----|-----12-10----12-10-----|
E|--6-----6----|--8------8--------|--10-------10-------|--10-------10-------10--|

Cause I wanna find the truth, So tell me now...
G|-------------|------------------|------------------------------|
D|-------------|------------------|------------------------------|
A|----8-7---8--|----10-8---10-8---|------------------------------|
E|--6-----6----|--8------8------8-|--10-10-10-10-10-10-10-10-10\-|

[Chorus 1]
I was lost at the edge of dying in a world so cold, Where do I begin?
G|-------------------|-------------------|-------------------|---------------------------|
D|-------------------|-------------------|-------------------|---------------------------|
A|-------------------|--8-8-8-8-8-8-8-8--|--5-5-5-5-5-5-5-5--|--12-12-12-12-12-12-12-12--|
E|--6-6-6-6-6-6-6-6--|-------------------|-------------------|---------------------------|

Now I’m alive, I can see I’m ready to be on my own
G|-------------------|-------------------|-------------------|-------------|
D|-------------------|-------------------|-------------------|-------------|
A|-------------------|--8-8-8-8-8-8-8-8--|--5-5-5-5-5-5-5-5--|--8-7---8----|
E|--6-6-6-6-6-6-6-6--|-------------------|-------------------|------6---5--|

One more step to take, Before it’s too late
G|-------------------|-------------------|-------------------|---------------------------|
D|-------------------|-------------------|-------------------|---------------------------|
A|-------------------|--8-8-8-8-8-8-8-8--|--5-5-5-5-5-5-5-5--|--12-12-12-12-12-12-12-12--|
E|--6-6-6-6-6-6-6-6--|-------------------|-------------------|---------------------------|

I just wanna reach the end, So where do I begin?
G|-------------------|-------------------|--------------|
D|-------------------|-------------------|--------------|
A|-------------------|--8-8-8-8-8-8-8-8--|--7-----------|
E|--6-6-6-6-6-6-6-6--|-------------------|--------------|

[Interlude 1]
G|-------------|------------------|--------------------|------------------------|
D|-------------|------------------|--------------------|------------------------|
A|----8-7---8--|----10-8---10-8---|-----12-10----12----|-----12-10----12-10-----|
E|--6-----6----|--8------8--------|--10-------10-------|--10-------10-------10--|

[Verse 2]
Hold my breath and keep on searching, For a life I haven’t found
G|-------------|------------------|--------------------|------------------------|
D|-------------|------------------|--------------------|------------------------|
A|----8-7---8--|----10-8---10-8---|-----12-10----12----|-----12-10----12-10-----|
E|--6-----6----|--8------8--------|--10-------10-------|--10-------10-------10--|

Cause I wanna know the truth, So tell me now
G|-------------|------------------|------------------------------|
D|-------------|------------------|------------------------------|
A|----8-7---8--|----10-8---10-8---|------------------------------|
E|--6-----6----|--8------8------8-|--10-10-10-10-10-10-10-10-10\-|

[Chorus 2]
I was lost at the edge of dying in a world so cold, Where do I begin?
G|-------------------|-------------------|-------------------|---------------------------|
D|-------------------|-------------------|-------------------|---------------------------|
A|-------------------|--8-8-8-8-8-8-8-8--|--5-5-5-5-5-5-5-5--|--12-12-12-12-12-12-12-12--|
E|--6-6-6-6-6-6-6-6--|-------------------|-------------------|---------------------------|

Now I’m alive, I can see I’m ready to be on my own
G|-------------------|-------------------|-------------------|-------------|
D|-------------------|-------------------|-------------------|-------------|
A|-------------------|--8-8-8-8-8-8-8-8--|--5-5-5-5-5-5-5-5--|--8-7---8----|
E|--6-6-6-6-6-6-6-6--|-------------------|-------------------|------6---5--|

One more step to take, Before it’s too late
G|-------------------|-------------------|-------------------|---------------------------|
D|-------------------|-------------------|-------------------|---------------------------|
A|-------------------|--8-8-8-8-8-8-8-8--|--5-5-5-5-5-5-5-5--|--12-12-12-12-12-12-12-12--|
E|--6-6-6-6-6-6-6-6--|-------------------|-------------------|---------------------------|

I just wanna reach the end...
G|-------------------|-------------------|--------------|
D|-------------------|-------------------|--------------|
A|-------------------|--8-8-8-8-8-8-8-8--|--7-----------|
E|--6-6-6-6-6-6-6-6--|-------------------|--------------|

Where do I begin?
G|--------------------|
D|---8-7-5------------|
A|--7-------8-6~------|
E|--------------------|

[Interlude 2]
G|---------------|---------------|
D|---------------|---------------|
A|--5-5-5-5-6-6--|--5-5-5-5-6-6--|
E|---------------|---------------|

[Bridge]
All the regrets I kept inside, I’ll let them go
G|-------------------|-------------------|-------------------|---------------------------|
D|-------------------|-------------------|-------------------|---------------------------|
A|--6-6-6-6-6-6-6-6--|--8-8-8-8-8-8-8-8--|--9-9-9-9-9-9-9-9--|--10-10-10-10-10-10-10-10--|
E|-------------------|-------------------|-------------------|---------------------------|

And all the things I never tried, I’ll never know
G|-------------------|-------------------|-------------------|---------------------------|
D|-------------------|-------------------|-------------------|---------------------------|
A|--6-6-6-6-6-6-6-6--|--8-8-8-8-8-8-8-8--|--9-9-9-9-9-9-9-9--|--10-10-10-10-10-10-10-10--|
E|-------------------|-------------------|-------------------|---------------------------|

I won’t rest until I see, The truth in me, I need it
G|-------------------|-------------------|-------------------|-----------------------------|
D|-------------------|-------------------|-------------------|-----------------------------|
A|--6-6-6-6-6-6-6-6--|--8-8-8-8-8-8-8-8--|--9-9-9-9-9-9-9-9--|--10-10-10-10-10-10-10-10-6~-|
E|-------------------|-------------------|-------------------|-----------------------------|

[Chorus 3]
I was lost at the edge of dying in a world so cold, Where do I begin?
G|-------------------|-------------------|-------------------|---------------------------|
D|-------------------|-------------------|-------------------|---------------------------|
A|-------------------|--8-8-8-8-8-8-8-8--|--5-5-5-5-5-5-5-5--|--12-12-12-12-12-12-12-12--|
E|--6-6-6-6-6-6-6-6--|-------------------|-------------------|---------------------------|

Now I’m alive, I can see I’m ready to be on my own
G|-------------------|-------------------|-------------------|-------------|
D|-------------------|-------------------|-------------------|-------------|
A|-------------------|--8-8-8-8-8-8-8-8--|--5-5-5-5-5-5-5-5--|--8-7---8----|
E|--6-6-6-6-6-6-6-6--|-------------------|-------------------|------6---5--|

One more step to take, Before it’s too late
G|-------------------|-------------------|-------------------|---------------------------|
D|-------------------|-------------------|-------------------|---------------------------|
A|-------------------|--8-8-8-8-8-8-8-8--|--5-5-5-5-5-5-5-5--|--12-12-12-12-12-12-12-12--|
E|--6-6-6-6-6-6-6-6--|-------------------|-------------------|---------------------------|

I just wanna reach the end... So where do I begin?
G|-------------------|-------------------|--------------|
D|-------------------|-------------------|--------------|
A|-------------------|--8-8-8-8-8-8-8-8--|--7-----------|
E|--6-6-6-6-6-6-6-6--|-------------------|--------------|



[Outro]

G|-------------|------------------|--------------------|------------------------|
D|-------------|------------------|--------------------|------------------------|
A|----8-7---8--|----10-8---10-8---|-----12-10----12----|-----12-10----12-10-----|
E|--6-----6----|--8------8--------|--10-------10-------|--10-------10-------10--|

G|-------------|----------------------------|
D|-------------|----------------------------|
A|----8-7---8--|----10-8---10-8-------------|
E|--6-----6----|--8------8------8-----------|


************************************

| \   Slide down

************************************
Suggest correction
comments
print report bad tab
guest
You may want to rate the tab now too:
select rating
Wanna post a correction for this tab? Suggest correction