Oops, an error
Loading. Please wait.

Youre Goin Down Tab

34,696 views 1 this week
6 commentsread comments
1 2 3 4 5
please rate
add to favorites
launch autoscroll
font size
0
reset
how to read this tab
guitar tuner
Autoscroll
slow
fast
+/-
esc
set tempo
stop
Help us to improve Ultimate-Guitar.com Take our survey!
×
-------------------------------------------------------------------------------
                      You're Goin' Down - Sick Puppies
-------------------------------------------------------------------------------
Tabbed by: David
Email: Davidmb88@msn.com

Tuning:A# F A# D# G C  Drop D and two steps down.


Bass Intro and verse
e|--------------------------------------------------------------------------|
B|--------------------------------------------------------------------------|
G|----------------------------xxxx------------------------------------------|
D|----------------------------xxxx------------------------------------------|
A|----------------------------xxxx------------------------------------------|
E|3333-222-000000000----------xxxx------------------------------------------|

Chorus X2
e|--------------------------------------------------------------------------|
B|----3333----3333----------------------------------------------------------|
G|--------------------5555----5555----7777----7777----5555----5555----------|
D|-00------00------33------33------55------55------33------33---------------|
A|-00------00------33------33------55------55------33------33---------------|
E|-00------00------33------33------55------55------33------33---------------|
   
  Pre-verse X4
e|--------------------------------------------------------------------------|
B|--------------------------------------------------------------------------|
G|--------------------------------------------------------------------------|
D|3p0-3-3p0-3-3p0-----------------------------------------------------------|
A|--------------------------------------------------------------------------|
E|--------------------------------------------------------------------------|

Verse
Chorus X2

Bridge
e|--------------------------------------------------------------------------|
B|--------------------------------------------------------------------------|
G|---xx-x----xx-x----xx-x----xx-x----xx-x----xx----xx-x----xx-x-------------|
D|88-xx-x-88-xx-x-55-xx-x-55-xx-x-00-xx-x-00-xx-33-xx-x-33-xx-x-------------|
A|88-xx-x-88-xx-x-55-xx-x-55-xx-x-00-xx-x-00-xx-33-xx-x-33-xx-x-------------|
E|88-xx-x-88-xx-x-55-xx-x-55-xx-x-00-xx-x-00-xx-33-xx-x-33-xx-x-------------|

e|--------------------------------------------------------------------------|
B|--------------------------------------------------------------------------|
G|---xx-x----xx-x----xx-x----xx---------------------------------------------|
D|88-xx-x-88-xx-x-55-xx-x-55-xx--0---3---5---3------------------------------|
A|88-xx-x-88-xx-x-55-xx-x-55-xx--0---3---5---3------------------------------|
E|88-xx-x-88-xx-x-55-xx-x-55-xx--0---3---5---3------------------------------|

Solo
e|--------------------------------------------------------------------------|
B|18-18-18-17-17-17-15-15-15-15-15-15-15-15-15-15-20-20-20-18-18-18-17-17-17|
G|--------------------------------------------------------------------------|
D|--------------------------------------------------------------------------|
A|--------------------------------------------------------------------------|
E|--------------------------------------------------------------------------|

e|--------------------------------------------------------------------------|
B|17-17-17-17-17-17-17-17-17-17-17-17-17-17-17-17-17-17-17-17-17-17-17------|
G|---------------------^Start gradual bend 1/2 step------------^------------|
D|------------------------------------------------------------Return--------|
A|--------------------------------------------------------------------------|
E|--------------------------------------------------------------------------|

e|------------------------18-17-18-17-18-17-18-17---------------------------|
B|15-15-15-15-15-15-15-15---------------------------------------------------|
G|--------------------------------------------------------------------------|
D|--------------------------------------------------------------------------|
A|--------------------------------------------------------------------------|
E|--------------------------------------------------------------------------|

Chorus X1

Outro X3
e|--------------------------------------------------------------------------|
B|--------------------------------------------------------------------------|
G|--------------------------------------------------------------------------|
D|3p0-3-3p0-3-3p0--3p0-3-3p0-3----------------------------------------------|
A|3p0-3-3p0-3-3p0--3p0-3-3p0-3----------------------------------------------|
E|3p0-3-3p0-3-3p0--3p0-3-3p0-3-000------------------------------------------|
                              

| /  slide up
| \  slide down
| h  hammer-on
| p  pull-off
| ~  vibrato
| +  harmonic
| x  Mute note
===============================================================================
Suggest correction
Give kudos to tab author, rate the tab!
1 2 3 4 5
comments
print report bad tab
6 comments total. Showing first comments.
0 reply
Nickster29 77 wrote on May 27 2009, 01:44 pm

Perfect tab, great job. Its surprising though. On Dressed Up As Life, Sick Puppies never went lower then Drop C. I guess its just part of their new Cd...They are evolving.

-1 reply
derosier92 56 wrote on June 3 2009, 10:50 pm

tab seems pretty accurate, honestly sick puppies should just use 7 string guitars playing that low is rediculous the strings will hardly hold tune, haha

0 reply
aspi12 10 wrote on November 24 2010, 05:46 am

What tuning are you trying to get because drop d 2 steps down is drop c not A# F A# D# G C....

Also derosier92 they can play that low with higher guage strings then they hold their tune.... common knowledge

guest
You may want to rate the tab now too:
select rating
Please do not post tabs as comments. Select "correction" instead!