Oops, an error
Loading. Please wait.
We have an official Youre Going Down tab made by UG professional guitarists. Check out the tab »
×
57,433 views 39 this week
11 commentsread comments
1 2 3 4 5
x 18
add to favorites
×
Save as Personal and add changes to this tab that will be seen only by you. Learn more ›
×
You can save this tab as Personal to edit and correct it or add notes. All changes will be seen only by you. Learn more »
launch autoscroll
font size
0
reset
guitar tuner
edit
Autoscroll
slow
fast
+/-
esc
set tempo
stop
Author
[Intro]
Eb|-------------------------------------------------------------------|
Bb|-------------------------------------------------------------------|
F |-888877775-555555-888877775-555555-88887775-555555-88887775-555555-|
Bb|-------------------------------------------------------------------|

 [Verse]
Eb|-------------------------------------------------------------------|
Bb|-------------------------------------------------------------------|
F |-888877775-555555-888877775-555555-88887775-555555-88887775-555555-|
Bb|-------------------------------------------------------------------|

 [Chorus]
Eb|----------------------------------------------------------------|
Bb|----------------------------------------------------------------|
F |----------------------------------------------------------------|
Bb|-00--00--33--33--55--55--11--11--00--00--33--33--55--55--11--11-|

 [Verse 2]
Eb|-------------------------------------------------------------------|
Bb|-------------------------------------------------------------------|
F |-888877775-555555-888877775-555555-88887775-555555-88887775-555555-|
Bb|-------------------------------------------------------------------|

 [Chorus 2]
Eb|----------------------------------------------------------------|
Bb|----------------------------------------------------------------|
F |----------------------------------------------------------------|
Bb|-00--00--33--33--55--55--11--11--00--00--33--33--55--55--11--11-|

 [Bridge]
Eb|--------------------------------------------------------------------------|
Bb|--------------------------------------------------------------------------|
F |--------------------------------------------------------------------------|
Bb|-88-xx-x88-xx-x55-xx-x55-xx-x00-xx-x00-xx-x33-xx-x33-xx-x88-xx-x88-xx-x55-|

Eb|---------------------------------|
Bb|---------------------------------|
F |---------------------------------|
Bb|-xx-x55-xx-x-0-------------------|

 [Guitar Solo]
Eb|------------------------------------------------------------------|
Bb|------------------------------------------------------------------|
F |----------------------------------------------------------3p2-3p2-|
Bb|-00-xx-x00-xx-x33-xx-x33-xx-x55-xx-x55-xx-x11-xx-x11-xx-x---------|

 [Chorus 3]
Eb|--------------------------------|
Bb|--------------------------------|
F |--------------------------------|
Bb|-00--00--33--33--55--55--11--11-|

 [Outro]
Eb|-------------------------------------------------------------------|
Bb|-------------------------------------------------------------------|
F |--888877775-555555-888877775-555555-88887775-555555-88887775-555555|
Bb|-------------------------------------------------------------------|

 (repeat this part 3 times)
Eb|-----------------------------------------|
Bb|-----------------------------------------|
F |--8p7p5-8-8p7p5-8-8p7p5-8p7p5-8-8p7p5-8--|
Bb|---------------------------------------0-|

************************************

| b  Bend
| x  Dead note
| p  Pull-off

************************************
Suggest correction
Creating personal tab
Creating personal tab
You can edit any tab online and save it as your Personal.

You can edit, replace or remove any tab part or add personal notes – all changes will be seen only by you.

Personal tabs can be accessed anytime from any device, even offline.
Learn more »
comments
print report bad tab
11 comments total. Showing first comments.
+1 reply
maythebassbew/u 31 Oct 07, 2009 06:28 PM

the tuning is drop b flat. good tab btw

0 reply
ferretbassit11 186 Oct 18, 2009 02:31 PM

i am going to redo this tab when i have the chance and make sure that it is 100% correct

0 reply
bigjonjon2005 30 Nov 22, 2009 08:09 AM

yeah it is a drop b flat an it is really good imo keep tabing

guest
You may want to rate the tab now too:
select rating
Wanna post a correction for this tab? Suggest correction