Oops, an error
Loading. Please wait.

Youre Going Down Tab

version 1
version 1

Whole song

Interactive

123,678 views 114 this week
19 commentsread comments
1 2 3 4 5
excellent!
x 36
add to favorites
launch autoscroll
font size
0
reset
how to read this tab
guitar tuner
Tab Pro tools
  • play this tab
  • loop segment
  • change instrument
  • show fretboard
  • metronome
×
Best way to learn
"Youre Going Down"
Autoscroll
slow
fast
+/-
esc
set tempo
stop
Contributor
Sick Puppies
You’re Going Down
Tabbed by U B the band
Tuning Bb F Bb Eb G C (Drop D then 2 steps down)

Legend
x-muted strum                    p-pull off                    pm-palm mute

Intro: Guitar 1 (Low Distortion) PLAY 4 TIMES
 C|---------------------------------------------------------------------------|
 G|---------------------------------------------------------------------------|
Eb|---------------------------------------------------------------------------|
Bb|---------------------------------------------------------------------------|
 F|---------------------------------------------------------------------------|
Bb|--3-3-3-3-2-2-2-0---0-0-0-0-0-0-0----3-3-3-3-2-2-2-0---0-0-0-0-0-0-0-------|

Verse 1: Guitar 1 (Low Distortion) PLAY 7 TIMES
 C|---------------------------------------------------------------------------|
 G|---------------------------------------------------------------------------|
Eb|---------------------------------------------------------------------------|
Bb|---------------------------------------------------------------------------|
 F|---------------------------------------------------------------------------|
Bb|--3-3-3-3-2-2-2-0---0-0-0-0-0-0-0----3-3-3-3-2-2-2-0---0-0-0-0-0-0-0-------|

Verse 1: Guitar 1 (Low Distortion) PLAY 1 TIME
 C|---------------------------------------------------------------------------|
 G|---------------------------------------------------------------------------|
Eb|---------------------------------------------------------------------------|
Bb|----------------------------------------------------------------------xxxx-|
 F|----------------------------------------------------------------------xxxx-|
Bb|--3-3-3-3-2-2-2-0---0-0-0-0-0-0-0----3-3-3-3-2-2-2-0---0-0-0-0-0-0-0--xxxx-|

Chorus: Guitar 1 (Distorted) PLAY ENTIRE CHORUS 2 TIMES
 C|---------------------------------------------------------------------------|
 G|---------------------------------------------------------------------------|
Eb|--------7--7--7--7--------7--7--7--7--------5--5--5--5--------5--5--5--5---|
Bb|--0--0--------------0--0--------------3--3--------------3--3---------------|
 F|--0--0--------------0--0--------------3--3--------------3--3---------------|
Bb|--0--0--------------0--0--------------3--3--------------3--3---------------|

Chorus: Guitar 1 (Distorted)
 C|---------------------------------------------------------------------------|
 G|---------------------------------------------------------------------------|
Eb|--------7--7--7--7--------7--7--7--7--------3--3--3--3--------3p2-3p2------|
Bb|--5--5--------------5--5--------------1--1--------------1--1---------------|
 F|--5--5--------------5--5--------------1--1--------------1--1---------------|
Bb|--5--5--------------5--5--------------1--1--------------1--1---------------|

Post Chorus: Guitar 1 (Distorted with effects) PLAY 2 TIMES
 C|---------------------------------------------------------------------------|
 G|---------------------------------------------------------------------------|
Eb|---------------------------------------------------------------------------|
Bb|--3-0-0-0---3--3-0-0-0---3--3-0-0-0-----3-0-0-0---3--3-0-0-0---3--3-0-0-0--|
 F|---------------------------------------------------------------------------|
Bb|---------------------------------------------------------------------------|

Verse 2: Guitar 1 (Low Distortion) PLAY 4 TIMES
 C|---------------------------------------------------------------------------|
 G|---------------------------------------------------------------------------|
Eb|---------------------------------------------------------------------------|
Bb|---------------------------------------------------------------------------|
 F|---------------------------------------------------------------------------|
Bb|--3-3-3-3-2-2-2-0---0-0-0-0-0-0-0----3-3-3-3-2-2-2-0---0-0-0-0-0-0-0-------|

Chorus: Guitar 1 (Distorted) PLAY ENTIRE CHORUS 2 TIMES
 C|---------------------------------------------------------------------------|
 G|---------------------------------------------------------------------------|
Eb|--------7--7--7--7--------7--7--7--7--------5--5--5--5--------5--5--5--5---|
Bb|--0--0--------------0--0--------------3--3--------------3--3---------------|
 F|--0--0--------------0--0--------------3--3--------------3--3---------------|
Bb|--0--0--------------0--0--------------3--3--------------3--3---------------|

Chorus: Guitar 1 (Distorted)
 C|---------------------------------------------------------------------------|
 G|---------------------------------------------------------------------------|
Eb|--------7--7--7--7--------7--7--7--7--------3--3--3--3--------3p2-3p2------|
Bb|--5--5--------------5--5--------------1--1--------------1--1---------------|
 F|--5--5--------------5--5--------------1--1--------------1--1---------------|
Bb|--5--5--------------5--5--------------1--1--------------1--1---------------|

Bridge: Guitar 1 (Distorted)
 C|---------------------------------------------------------------------------|
 G|---------------------------------------------------------------------------|
Eb|---------------------------------------------------------------------------|
Bb|--8--8-x-x--x-8--8-x-x--x-5--5-x-x--x-5--5-x-x--x-0--0-x-x--x-0--0-x-x--x--|
 F|--8--8-x-x--x-8--8-x-x--x-5--5-x-x--x-5--5-x-x--x-0--0-x-x--x-0--0-x-x--x--|
Bb|--8--8-x-x--x-8--8-x-x--x-5--5-x-x--x-5--5-x-x--x-0--0-x-x--x-0--0-x-x--x--|

 C|---------------------------------------------------------------------------|
 G|---------------------------------------------------------------------------|
Eb|---------------------------------------------------------------------------|
Bb|--3--3-x-x--x-3--3-x-x--x-8--8-x-x--x-8--8-x-x--x-5--5-x-x--x-5--5-x-x--x--|
 F|--3--3-x-x--x-3--3-x-x--x-8--8-x-x--x-8--8-x-x--x-5--5-x-x--x-5--5-x-x--x--|
Bb|--3--3-x-x--x-3--3-x-x--x-8--8-x-x--x-8--8-x-x--x-5--5-x-x--x-5--5-x-x--x--|

Chorus 2: Guitar 1 (Distorted)
 C|---------------------------------------------------------------------------|
 G|---------------------------------------------------------------------------|
Eb|---------------------------------------------------------------------------|
Bb|--0-----------------------------------3------------------------------------|
 F|--0-----------------------------------3------------------------------------|
Bb|--0-----------------------------------3------------------------------------|

Chorus: Guitar 1 (Distorted)
 C|---------------------------------------------------------------------------|
 G|---------------------------------------------------------------------------|
Eb|--------------------------------------------------------------3p2-3p2------|
Bb|--5-----------------------------------1------------------------------------|
 F|--5-----------------------------------1------------------------------------|
Bb|--5-----------------------------------1------------------------------------|

Solo: Guitar 1 (Distorted)
 C|-------------------------------------------------15-15-15------------------|
 G|-18-18-18-17-17-17-15-15-15-15-15-15-15-15-15-15----------18-18-18-17-17-17|
Eb|---------------------------------------------------------------------------|
Bb|---------------------------------------------------------------------------|
 F|---------------------------------------------------------------------------|
Bb|---------------------------------------------------------------------------|

 C|---------------------------------------------------------------------------|
 G|-17-17-17-17-17-17-17-17-17-17-17-17-17-17-17-17-17-17-17-17-17-17-17------|
Eb|---------------------------------------------------------------------------|
Bb|---------------------------------------------------------------------------|
 F|---------------------------------------------------------------------------|
Bb|---------------------------------------------------------------------------|

 C|-------------------------17b(18)r17-17b(18)r17-17b(18)r17-17b(18)r17-------|
 G|-15-15-15-15-15-15-15-15---------------------------------------------------|
Eb|---------------------------------------------------------------------------|
Bb|---------------------------------------------------------------------------|
 F|---------------------------------------------------------------------------|
Bb|---------------------------------------------------------------------------|

Bridge (During Solo): Guitar 1 (Distorted)
 C|---------------------------------------------------------------------------|
 G|---------------------------------------------------------------------------|
Eb|---------------------------------------------------------------------------|
Bb|--8--8-x-x--x-8--8-x-x--x-5--5-x-x--x-5--5-x-x--x-0--0-x-x--x-0--0-x-x--x--|
 F|--8--8-x-x--x-8--8-x-x--x-5--5-x-x--x-5--5-x-x--x-0--0-x-x--x-0--0-x-x--x--|
Bb|--8--8-x-x--x-8--8-x-x--x-5--5-x-x--x-5--5-x-x--x-0--0-x-x--x-0--0-x-x--x--|

 C|---------------------------------------------------------------------------|
 G|---------------------------------------------------------------------------|
Eb|---------------------------------------------------------------------------|
Bb|--3--3-x-x--x-3--3-x-x--x-8--8-x-x--x-8--8-x-x--x-5--5-x-x--x-5--5-x-x--x--|
 F|--3--3-x-x--x-3--3-x-x--x-8--8-x-x--x-8--8-x-x--x-5--5-x-x--x-5--5-x-x--x--|
Bb|--3--3-x-x--x-3--3-x-x--x-8--8-x-x--x-8--8-x-x--x-5--5-x-x--x-5--5-x-x--x--|

Chorus: Guitar 1 (Distorted) PLAY ENTIRE CHORUS 1 TIME
 C|---------------------------------------------------------------------------|
 G|---------------------------------------------------------------------------|
Eb|--------7--7--7--7--------7--7--7--7--------5--5--5--5--------5--5--5--5---|
Bb|--0--0--------------0--0--------------3--3--------------3--3---------------|
 F|--0--0--------------0--0--------------3--3--------------3--3---------------|
Bb|--0--0--------------0--0--------------3--3--------------3--3---------------|

Chorus: Guitar 1 (Distorted)
 C|---------------------------------------------------------------------------|
 G|---------------------------------------------------------------------------|
Eb|--------7--7--7--7--------7--7--7--7--------3--3--3--3--------3p2-3p2------|
Bb|--5--5--------------5--5--------------1--1--------------1--1---------------|
 F|--5--5--------------5--5--------------1--1--------------1--1---------------|
Bb|--5--5--------------5--5--------------1--1--------------1--1---------------|

Intro: Guitar 1 (Low Distortion) PLAY 4 TIMES
 C|---------------------------------------------------------------------------|
 G|---------------------------------------------------------------------------|
Eb|---------------------------------------------------------------------------|
Bb|---------------------------------------------------------------------------|
 F|---------------------------------------------------------------------------|
Bb|--3-3-3-3-2-2-2-0---0-0-0-0-0-0-0----3-3-3-3-2-2-2-0---0-0-0-0-0-0-0-------|

Outro: PLAY 3 TIMES
 C|---------------------------------------------------------------------------|
 G|---------------------------------------------------------------------------|
Eb|---------------------------------------------------------------------------|
Bb|---------------------------------------------------------------------------|
 F|---------------------------------------------------------------------------|
Bb|--3-0-0-0---3--3-0-0-0---3--3-0-0-0-----3-0-0-0---3--3-0-0-0---3-0000------|
                                                                    pmpm

Finished
comments
print report bad tab
19 comments total. Showing first comments.
0 reply
canoreo wrote on July 28 2009, 02:21 am

sounds good to me

0 reply
MrCash247 wrote on July 30 2009, 02:08 am

100% correct

0 reply
phasesevenfold wrote on August 10 2009, 01:04 pm

yeah sounds pretty good to me.

I want to post or [tab]
guest
You may want to rate the tab now too:
select rating
Please do not post tabs as comments. Select "correction" instead!