Oops, an error
Loading. Please wait.

Bad Year Tab

version 2
version 2

Whole song

198 views 1 this week
no commentswrite comment
1 2 3 4 5
please rate
add to favorites
launch autoscroll
font size
0
reset
how to read this tab
guitar tuner
Tab Pro tools
  • play this tab
  • loop segment
  • change instrument
  • show fretboard
  • metronome
×
Best way to learn
"Bad Year"
Autoscroll
slow
fast
+/-
esc
set tempo
stop
Difficulty
Tuning
novice
D# G# C# F# A# D#
-------------------------------------------------------------------------------
                                     BAD YEAR - Sicko
-------------------------------------------------------------------------------
Tabbed by: edgeback
Email:

Tuning: down 1/2 step

Order:

(Intro)
(Interlude) always has (Chorus) behind it as Guitar #2
(Verse)x2
(Chorus)
(Interlude)
(Verse)x2
(Chorus)
(Bass Groove)
(Bridge Part 1)
(Bridge Part 2)
(Interlude)x2
(Ending)


  (Intro)
e|2-2002-2-220020x-2-2222-2-2222222------------------3333333333333333--------|
B|3-3333-3-3333333-3-3333-3-3333333-2-222-22---------3333333333333333--------|
G|2-2222-2-2222222-4-4444-4-4444444-2-222-22------22-0000000000000000--------|
D|0-0000-0-0000000-4-4444-4-4444444-2-222-22-5554422-0000000000000000--------|
A|-----------------2-2222-2-2222222-0-000-00-0000000-2222222222222222--------|
E|---------------------------------------------------3333333333333333--------|

  (Chorus)    
e|2222222222222222-2222222222222222-0000000000000000-3333333333333333--------|
B|3333333333333333-3333333333333333-2222222222222222-3333333333333333--------|
G|2222222222222222-4444444444444444-2222222222222222-0000000000000000--------|
D|0000000000000000-4444444444444444-2222222222222222-0000000000000000--------|
A|-----------------2222222222222222-0000000000000000-2222222222222222--------|
E|---------------------------------------------------3333333333333333--------|

  (Interlude)
e|-------5----------------5--------------------------3333333333333333--------|
B|7-7557---775575----7557---775575---5-555-558887-55-3333333333333333--------|
G|---------------7----------------7------------------0000000000000000--------|
D|---------------------------------------------------0000000000000000--------|
A|---------------------------------------------------2222222222222222--------|
E|---------------------------------------------------3333333333333333--------|

  (Verse)
e|00000000000000---33333333333333-22-22-00000000-----------------------------|
B|22222222222222---33333333333333-33-33-22222222-----------------------------|
G|22222222222222---00000000000000-22-22-00000000-----------------------------|
D|22222222222222---00000000000000-00-00-22222222-22222222--------------------|
A|00000000000000---22222222222222-------33333333-22222222--------------------|
E|-----------------33333333333333----------------00000000--------------------|

  (Bass Groove)
e|---------------------------------------------------------------------------|
B|---------------------------------------------------------------------------|
G|---------------------------------------------------------------------------|
D|---------------------------------------------------------------------------|
A|555555555555555522222222222222220000000000000000---------------------------|
E|------------------------------------------------3333333333333333-----------|
 
  (Bridge part 1)
e|------------------------------------------------3--------------------------|
B|------------------------------------------------3--------------------------|
G|------------------------------------------------0--------------------------|
D|--------44422200--------44422200--------5-4-2-0-0--------------------------|
A|55555555--------22222222--------00000000--------2--------------------------|
E|------------------------------------------------3--------------------------|

  (Bridge part 2)
e|2-------2-------0-------3-3-3-3-33333333-----------------------------------|
B|3-------3-------2-------3-3-3-3-33333333-----------------------------------|
G|2-------4-------2-------0-0-0-0-00000000-----------------------------------|
D|0-------4-------2-------0-0-0-0-00000000-----------------------------------|
A|--------2-------0-------2-2-2-2-22222222-----------------------------------|
E|------------------------3-3-3-3-33333333-----------------------------------|

  (Ending)
e|3-3----3-3----0------------------------------------------------------------|
B|3-3----3-3----2------------------------------------------------------------|
G|0-0----0-0----2------------------------------------------------------------|
D|0-0----0-0----2------------------------------------------------------------|
A|2-2----2-2----0------------------------------------------------------------|
E|3-3----3-3-----------------------------------------------------------------|


************************************

| /   slide up
| \   slide down
| h   hammer-on
| p   pull-off
| ~   vibrato
| +   harmonic
| x   Mute note
| b   Bend
| pb  Pre-bend
| br  Bend release
| pbr Pre-bend release
| brb Bend release bend

************************************
comments
We did not receive enough feedback on this tab! Please rate:
print report bad tab
1 2 3 4 5
I want to post or [tab]
guest
You may want to rate the tab now too:
select rating
Please do not post tabs as comments. Select "correction" instead!