Oops, an error
Loading. Please wait.

Control Tab

214 views 1 this week
no commentswrite comment
1 2 3 4 5
3 more votes to show rating
add to favorites
launch autoscroll
font size
0
reset
how to read this tab
guitar tuner
Autoscroll
slow
fast
+/-
esc
set tempo
stop
Help us to improve Ultimate-Guitar.com Take our survey!
×
espero les agrade es la primera rola k suvo :)

Intro: E  (Bajo, hasta donde entra el teclado y la guitarra)

       F# - E (Guitarra) x2
e]----------------------------------------
B]-14-16-17-x4--12-14-16-16/17-16-14v-x4-- x2
G]----------------------------------------
D]----------------------------------------
    F#  E  G#  A   B
e)---------------------]
b)---------------------]
g)--11--9--13--14--9---]
d)--11--9--13--14--9---]
a)--9---7--11--12--7---]
E)---------------------]

F#
Es hora de seguir
               E
abismos nos separan
F#
y si el diluvio cae
         E
me enterrara

                G#              A
Y que va a ser de mi? cuando te vayas?
                G#               A
Y que va a ser de ti? en donde estaras?

         B
que mas hay?
         A
que mas hay? X2

F#
La tarde se ha ido ya
                  E
y no se escucha nadie
 F#
la nada con tu olor
         E
me encontraran

                 G#              A
Y que va a ser de mi? cuando te vayas?
                 G#              A
y que va a ser de ti? a donde volaras?

         B
que mas hay?
         A
que mas hay?  X2


puente: G# - A x2


 G#
Si el dolor es temor
por un nuevo resplandor
    A
y seguir sin ver fin
es el precio de vivir
    G#
Si tu adiós fue el perdon
                         A
a mi falta de control?

control... control..
B              F#                    A
control... control... control... control...
B              F#                    A
control... control... control... control...(Give me shine!)

e)-----------------------------]
b)-----------------------------]
g)-11/--13--11--9--11--99------]
d)-11/--13--11--9--11--99-x2---]
a)--9/--11--9---7--9---77------]
E)-----------------------------]


e)-------------------------]
b)-------------------------]
g)-13--11--9--11-----------]
d)-13--11--9--11--99-x2----]
a)-11--9---7--9---99-------]
E)----------------77-------]
Suggest correction
Give kudos to tab author, rate the tab!
1 2 3 4 5
comments
print report bad tab
guest
You may want to rate the tab now too:
select rating
Wanna post a correction for this tab? Suggest correction