Oops, an error
Loading. Please wait.

En Silencio Tab

60 views 1 this week
no commentswrite comment
1 2 3 4 5
3 more votes to show rating
add to favorites
launch autoscroll
font size
0
reset
how to read this tab
guitar tuner
Autoscroll
slow
fast
+/-
esc
set tempo
stop
Help us to improve Ultimate-Guitar.com Take our survey!
×
Hola, la transcripción anterior está horrible, ni siquiera está en el tono.
Un día en una fiesta con Siddhartha la cantó y me fijé qué onda con los
acordes y aquí está, me parece que está muuuucho mejor que la anterior,
a ver qué les parece.
el intro es así:

Gtrr. 1

E -------------------------------------------
A ---------------------5---------------------
D --5-----------5---------4----------4-------
G -----5-----5-----5----------5----5----5----
B --------5----------------------3-----------
e -------------------------------------------

E ------------------------------------------
A --------------------3---------------------
D -3----------3----------5---------5--------
G ----5----5----5----------5----5-----------
B -------3--------------------3-------------
e ------------------------------------------

(Esto se repite todo el intro y prácticamente toda la parte del verso)

Y luego en la segunda vuelta del intro entra esta lira

Gtrr. 2

G ------------------------------------------------
B -8---8---8--8---10----7----5----3---3---5---3---
e ------------------------------------------------

G ------------------------------------------------
B -6---6---6--6---8----5----3----1-----1---3---1--
e ------------------------------------------------

G ----------------------------------------------4h5-
B -8---8---8---10---7---10----5h6---6---6---3-------
e --------------------------------------------------


Ahí está, durante toda la parte del verso se toca lo de la
Gtrr. 1 del intro y ya en el coro pues si cambia un poquito
aunque creo que eso les puede ayudar a guiarse, si de plano
no pueden sacar la parte del coro me ponen un correo y les digo qué onda.
Saludos
Suggest correction
Give kudos to tab author, rate the tab!
1 2 3 4 5
comments
print report bad tab
guest
You may want to rate the tab now too:
select rating
Wanna post a correction for this tab? Suggest correction