Oops, an error
Loading. Please wait.

La Verdad Tab

81 views 1 this week
no commentswrite comment
1 2 3 4 5
3 more votes to show rating
add to favorites
launch autoscroll
font size
0
reset
how to read this tab
guitar tuner
×
Best way to learn
"La Verdad"
Autoscroll
slow
fast
+/-
esc
set tempo
stop
Para Vero Weentz

Intro

D|---0-0-----0-0----|
G|-------7------7---|

Ésto se repite hasta que empieza el verso.

Fue la verdad[...]

G|----7-6--7-6--7-| x2

Sin razón [...]

G|---4-2--4-2--4-| x2

[...] lo mejor

D|-----7-5--7-5--7--|

De lo peor

D|-----9-7--9-7--9--|

Se repite igual en el segundo verso
a excepción de

Y a donde voy

D-----9-7--9-7--9---9-7--9-7--9--11|

CORO
Quizá me ahogue[...]

G|---7-7-7---6---| x2

lluvia.
G|---4-4-4---2---| x2

Se repite para el resto del coro.

Riff final

G|--7-7---6-6---4-4---2-2---0--2|


G----------------------------2|
B|--7-7---5-5--3-3---2-2---0--|
Suggest correction
Give kudos to tab author, rate the tab!
1 2 3 4 5
comments
print report bad tab
guest
You may want to rate the tab now too:
select rating
Wanna post a correction for this tab? Suggest correction