Oops, an error
Loading. Please wait.

Nunca Es Nunca Tab

318 views 3 this week
no commentswrite comment
1 2 3 4 5
3 more votes to show rating
add to favorites
launch autoscroll
font size
0
reset
how to read this tab
guitar tuner
×
Best way to learn
"Nunca Es Nunca"
Autoscroll
slow
fast
+/-
esc
set tempo
stop
Intro y riff principal en en el primer verso

e-------------------|-----------------|
B-------------------|-----------------|
G-11---11---11---11-|-9---9---9---9---|
D----9----9----9----|---7---7---7---7-|
A-------------------|-----------------|
E-------------------|-----------------|

e-------------------|-------------------------|
B-10---10---10---10-|-------------------------|
G----7----7----7----|-11----11----11----11----|
D-------------------|----12----12----12----12-|
A-------------------|-------------------------|
E-------------------|-------------------------|

e-------------------|-----------------|
B-------------------|-----------------|
G-11---11---11---11-|-9---9---9---9---|
D----9----9----9----|---7---7---7---7-|
A-------------------|-----------------|
E-------------------|-----------------|

e-------------------|-------------------------|
B-10---10---10---10-|-------------------------|
G----7----7----7----|-11----11----11----11----|
D-------------------|----12----12----12----12-|
A-------------------|-------------------------|
E-------------------|-------------------------|

 Verso 1

e-------------------|-----------------|
B-------------------|-----------------|
G-11---11---11---11-|-9---9---9---9---|
D----9----9----9----|---7---7---7---7-|
A-------------------|-----------------|
E-------------------|-----------------|

e-------------------|-------------------------|
B-10---10---10---10-|-------------------------|
G----7----7----7----|-11----11----11----11----|
D-------------------|----12----12----12----12-|
A-------------------|-------------------------|
E-------------------|-------------------------|

e-------------------|-----------------|
B-------------------|-----------------|
G-11---11---11---11-|-9---9---9---9---|
D----9----9----9----|---7---7---7---7-|
A-------------------|-----------------|
E-------------------|-----------------|

e-------------------|-------------------------|
B-10---10---10---10-|-------------------------|
G----7----7----7----|-11----11----11----11----|
D-------------------|----12----12----12----12-|
A-------------------|-------------------------|
E-------------------|-------------------------|

e-------------------|-----------------|
B-------------------|-----------------|
G-11---11---11---11-|-9---9---9---9---|
D----9----9----9----|---7---7---7---7-|
A-------------------|-----------------|
E-------------------|-----------------|

e-------------------|-------------------------|
B-10---10---10---10-|-------------------------|
G----7----7----7----|-11----11----11----11----|
D-------------------|----12----12----12----12-|
A-------------------|-------------------------|
E-------------------|-------------------------|

e-------------------|-----------------|
B-------------------|-----------------|
G-11---11---11---11-|-9---9---9---9---|
D----9----9----9----|---7---7---7---7-|
A-------------------|-----------------|
E-------------------|-----------------|

e-------------------|-------------------------|
B-10---10---10---10-|-------------------------|
G----7----7----7----|-11----11----11----11----|
D-------------------|----12----12----12----12-|
A-------------------|-------------------------|
E-------------------|-------------------------|

 Coro

e-5-----5-----5---|-9-----9-----9---|-5-----5-----5---|-9-----9-----9---|
B---7-----7-----7-|---7-----7-----7-|---7-----7-----7-|---7-----7-----7-|
G-----7-----7-----|-----7-----7-----|-----7-----7-----|-----7-----7-----|
D-----------------|-----------------|-----------------|-----------------|
A-----------------|-----------------|-----------------|-----------------|
E-----------------|-----------------|-----------------|-----------------|

e-5-----5-----5---|-9-----9-----9---|-5-----5-----5---|-9-----9-----9---|
B---7-----7-----7-|---7-----7-----7-|---7-----7-----7-|---7-----7-----7-|
G-----7-----7-----|-----7-----7-----|-----7-----7-----|-----7-----7-----|
D-----------------|-----------------|-----------------|-----------------|
A-----------------|-----------------|-----------------|-----------------|
E-----------------|-----------------|-----------------|-----------------|

 (Puente)

e-7~---|-5~---|-5~---|
B-8~---|-5~---|-7~---|
G-9~---|-6~---|-6~---|
D-9~---|-7~---|-7~---|
A-7~---|-7~---|-5~---|
E-7~---|-5~---|-5~---|

 Verso 2

e------------------|------------------|
B-3-----3-----3-2--|-2-----2-----2----|
G---4-----4--------|---2-----2-----4--|
D-----5-----5------|-----4-----4------|
A------------------|------------------|
E------------------|------------------|

e------------------|----------------------9-|
B-7-----7-----7----|-10-------10-------10---|
G---7-----7-----9--|----11-------11---------|
D-----9-----9------|-------12-------12------|
A------------------|------------------------|
E------------------|------------------------|

e------------------|------------------|
B-3-----3-----3-2--|-2-----2-----2-3--|
G---4-----4--------|---2-----2--------|
D-----5-----5------|-----4-----4------|
A------------------|------------------|
E------------------|------------------|

e------------------|----------------------9-|
B-7-----7-----7----|-10-------10-------10---|
G---7-----7-----9--|----11-------11---------|
D-----9-----9------|-------12-------12------|
A------------------|------------------------|
E------------------|------------------------|

 La verdad es que no sé

e-5---------------------------|-5--------5----------------|
B---6------7h8-------------7--|---8---0----6------8-7-----|
G-----7--------7---0-----6----|-----7--------7--------7---|
D-------8--------8-----7------|----------------5--------7-|
A-----------------------------|---------------------------|
E-----------------------------|---------------------------|

 Nunca mirar atrás

e-5-----5-----5---|-9-----9-----9---|-5-----5-----5---|-9-----9-----9---|
B---7-----7-----7-|---7-----7-----7-|---7-----7-----7-|---7-----7-----7-|
G-----7-----7-----|-----7-----7-----|-----7-----7-----|-----7-----7-----|
D-----------------|-----------------|-----------------|-----------------|
A-----------------|-----------------|-----------------|-----------------|
E-----------------|-----------------|-----------------|-----------------|

 Nunca es nunca

e-5-----5-----5---|-9-----9-----9---|-5-----5-----5---|-9-----9-----9---|
B---7-----7-----7-|---7-----7-----7-|---7-----7-----7-|---7-----7-----7-|
G-----7-----7-----|-----7-----7-----|-----7-----7-----|-----7-----7-----|
D-----------------|-----------------|-----------------|-----------------|
A-----------------|-----------------|-----------------|-----------------|
E-----------------|-----------------|-----------------|-----------------|


 Nunca mirar atrás

e-5-----5-----5---|-9-----9-----9---|-5-----5-----5---|-9-----9-----9---|
B---7-----7-----7-|---7-----7-----7-|---7-----7-----7-|---7-----7-----7-|
G-----7-----7-----|-----7-----7-----|-----7-----7-----|-----7-----7-----|
D-----------------|-----------------|-----------------|-----------------|
A-----------------|-----------------|-----------------|-----------------|
E-----------------|-----------------|-----------------|-----------------|

 Y nunca es nunca

e-5-----5-----5---|-9-----9-----9---|-5-----5-----5---|-9-----9-----9---|
B---7-----7-----7-|---7-----7-----7-|---7-----7-----7-|---7-----7-----7-|
G-----7-----7-----|-----7-----7-----|-----7-----7-----|-----7-----7-----|
D-----------------|-----------------|-----------------|-----------------|
A-----------------|-----------------|-----------------|-----------------|
E-----------------|-----------------|-----------------|-----------------|

 Final

e--------------------------5~~-|--------------------------5~~-|
B-------7-------7-------7--5~~-|-------7-------7-------7--5~~-|
G----7-------7-------7-----7~~-|----7-------7-------7-----7~~-|
D-9-------7-------5--------6~~-|-9-------7-------5--------6~~-|
A--------------------------7~~-|--------------------------7~~-|
E--------------------------5~~-|--------------------------5~~-|
Suggest correction
Give kudos to tab author, rate the tab!
1 2 3 4 5
comments
print report bad tab
guest
You may want to rate the tab now too:
select rating
Wanna post a correction for this tab? Suggest correction